Oops, an error
Loading. Please wait.

Public Servant Bass Tab

298 views 1 this week
no commentswrite comment
1 2 3 4 5
please rate
add to favorites
launch autoscroll
font size
0
reset
guitar tuner
Autoscroll
slow
fast
+/-
esc
set tempo
stop
Help us to improve Ultimate-Guitar.com Take our survey!
×
Intro                           x2
G---------------------------------|
D---------------------------------|
A---------------------------------|
E---------------------------------|

Verse                           x2
G---------------------------------|
D---------------------------------|
A---------1-1-1-1---------1-1-1-1-|
E-1-1-1-1---------1-1-1-1---------|

Chorus
G-------------------------------------------------|
D-------------------------------------------------|
A-3-3-3-3-1-1-1-1---------1-1-1-1---------1-1-1-1-|
E-----------------1-1-1-1---------1-1-1-1---------|

Verse                           x2
G---------------------------------|
D---------------------------------|
A---------1-1-1-1---------1-1-1-1-|
E-1-1-1-1---------1-1-1-1---------|

Chorus
G-------------------------------------------------|
D-------------------------------------------------|
A-3-3-3-3-1-1-1-1---------1-1-1-1---------1-1-1-1-|
E-----------------1-1-1-1---------1-1-1-1---------|

Verse                           x2
G---------------------------------|
D---------------------------------|
A---------1-1-1-1---------1-1-1-1-|
E-1-1-1-1---------1-1-1-1---------|

Chorus
G-------------------------------------------------|
D-------------------------------------------------|
A-3-3-3-3-1-1-1-1---------1-1-1-1---------1-1-1-1-|
E-----------------1-1-1-1---------1-1-1-1---------|

Solo                            x4
G---------------------------------|
D---------------------------------|
A---------1-1-1-1---------1-1-1-1-|
E-1-1-1-1---------1-1-1-1---------|

Chorus
G-------------------------------------------------|
D-------------------------------------------------|
A-3-3-3-3-1-1-1-1---------1-1-1-1---------1-1-1-1-|
E-----------------1-1-1-1---------1-1-1-1---------|

Verse                           x2
G---------------------------------|
D---------------------------------|
A---------1-1-1-1---------1-1-1-1-|
E-1-1-1-1---------1-1-1-1---------|

Chorus
G-------------------------------------------------|
D-------------------------------------------------|
A-3-3-3-3-1-1-1-1---------1-1-1-1---------1-1-1-1-|
E-----------------1-1-1-1---------1-1-1-1---------|

Outro (repeat and fade out)
G---------------------------------|
D---------------------------------|
A---------1-1-1-1---------1-1-1-1-|
E-1-1-1-1---------1-1-1-1---------|
Suggest correction
Give kudos to tab author, rate the tab!
1 2 3 4 5
comments
print report bad tab
guest
You may want to rate the tab now too:
select rating
Please do not post tabs as comments. Select "correction" instead!