Oops, an error
Loading. Please wait.

Rat Race Bass Tab

534 views 1 this week
no commentswrite comment
1 2 3 4 5
3 more votes to show rating
add to favorites
launch autoscroll
font size
0
reset
guitar tuner
Autoscroll
slow
fast
+/-
esc
set tempo
stop
Help us to improve Ultimate-Guitar.com Take our survey!
×
Intro
G----------------------|----------------------|
D----------------------|----------------------|
A----------------------|----------------------|
E----------------------|----------------------|

Verse
G----------------------|----------------------|----------------------|
D----------------------|----------------------|----------------------|
A----------------3--5--|----------------3--5--|----------------3--5--|
E-0-0-0-0-0-0-0--------|-0-0-0-0-0-0-0--------|-0-0-0-0-0-0-0--------|

G---------------------------------------------------------------------------|
D---------------------------------------------------------------------------|
A---------------------------------------0-0-0-0-2-2-2-2-7-7-7-7-7-7-7-3--5--|
E-0-0-0-0-0-0-0-3-3-3-3-1-1-1-1-1-1-1-1-------------------------------------|

G----------------------|----------------------|----------------------|
D----------------------|----------------------|----------------------|
A----------------3--5--|----------------3--5--|----------------3--5--|
E-0-0-0-0-0-0-0--------|-0-0-0-0-0-0-0--------|-0-0-0-0-0-0-0--------|

G---------------------------------------------------------------------------|
D---------------------------------------------------------------------------|
A---------------------------------------0-0-0-0-2-2-2-2-7-7-7-7-7-7-7-3--5--|
E-0-0-0-0-0-0-0-3-3-3-3-1-1-1-1-1-1-1-1-------------------------------------|

Chorus
G-------------------------|-------------------------|
D-------------------------|-------------------------|
A-------------0-0-0-2-2-2-|-------------0-0-0-2-2-2-|
E-0-0-0-------------------|-0-0-0-------------------|

Verse
G----------------------|----------------------|----------------------|
D----------------------|----------------------|----------------------|
A----------------3--5--|----------------3--5--|----------------3--5--|
E-0-0-0-0-0-0-0--------|-0-0-0-0-0-0-0--------|-0-0-0-0-0-0-0--------|

G---------------------------------------------------------------------------|
D---------------------------------------------------------------------------|
A---------------------------------------0-0-0-0-2-2-2-2-7-7-7-7-7-7-7-3--5--|
E-0-0-0-0-0-0-0-3-3-3-3-1-1-1-1-1-1-1-1-------------------------------------|

Chorus
G-------------------------|-------------------------|
D-------------------------|-------------------------|
A-------------0-0-0-2-2-2-|-------------0-0-0-2-2-2-|
E-0-0-0-------------------|-0-0-0-------------------|

Solo
G----------------------|----------------------|----------------------|
D----------------------|----------------------|----------------------|
A----------------3--5--|----------------3--5--|----------------3--5--|
E-0-0-0-0-0-0-0--------|-0-0-0-0-0-0-0--------|-0-0-0-0-0-0-0--------|

G---------------------------------------------------------------------------|
D---------------------------------------------------------------------------|
A---------------------------------------0-0-0-0-2-2-2-2-7-7-7-7-7-7-7-3--5--|
E-0-0-0-0-0-0-0-3-3-3-3-1-1-1-1-1-1-1-1-------------------------------------|

Outro (just repeat and fade out)
G----------------------|----------------------|----------------------|
D----------------------|----------------------|----------------------|
A----------------3--5--|----------------3--5--|----------------3--5--|
E-0-0-0-0-0-0-0--------|-0-0-0-0-0-0-0--------|-0-0-0-0-0-0-0--------|
Suggest correction
Give kudos to tab author, rate the tab!
1 2 3 4 5
comments
print report bad tab
guest
You may want to rate the tab now too:
select rating
Wanna post a correction for this tab? Suggest correction