Oops, an error
Loading. Please wait.

Shes Not There Tab

439 views 1 this week
no commentswrite comment
1 2 3 4 5
please rate
add to favorites
launch autoscroll
font size
0
reset
how to read this tab
guitar tuner
Tab Pro tools
  • play this tab
  • loop segment
  • change instrument
  • show fretboard
  • metronome
×
Best way to learn
"Shes Not There"
Autoscroll
slow
fast
+/-
esc
set tempo
stop
Contributor
Difficulty
intermediate
--------------------------------------------------------------
Artist    :  U.K. Subs
Song      :  She's Not There
Album     :  Original Punks Original Hits
--------------------------------------------------------------
Tabbed By :  Ricky Thomson
Date      :  25th July 2013
Contact   :  punkalert@gmail.com
--------------------------------------------------------------


Tuning: standard

pm  = palm mute
<<  = pick slide


[intro]
pm[  . . . . . . .                 ]
e||--------------------------------||
B||--------------------------------||
G||--------------------------------||
D||--------------------------------|| x3
A||--------------------------------||
E||--0-3-2-0-2-3-2--0---0---0-2-3--||

pm[  . . . . . . .                                     ]
 e|----------------------------------------------------|
 B|----------------------------------------------------|
 G|----------------------------------------------------|
 D|----------------------------------------------------|  x1
 A|------------------------------<<<<<<<<<<<<<<<<<<<<--| 
 E|--0-3-2-0-2-3-2--0---0---0-2--<<<<<<<<<<<<<<<<<<<<--|

 
 
[verse one]
e||--------------------------------||
B||--------------------------------||
G||--------------------------------||
D||--2-2--4-4-4--5-5-5-5--4-4-4-4--|| x8
A||--2-2--4-4-4--5-5-5-5--4-4-4-4--||
E||--0-0--2-2-2--3-3-3-3--2-2-2-2--||

pm[  . . . . . . . . . . . . . . . . . . . . . . . . . .              ]
 e|-------------------------------------------------------------------|
 B|-------------------------------------------------------------------|
 G|-------------------------------------------------------------------|
 D|--7-7-7-7-7-7-7-7-2-2-2-2-2-2-2-2-9-9-9-9-9-9-9-9-9-9-9-9-9-9-9-9--| x1
 A|--7-7-7-7-7-7-7-7-2-2-2-2-2-2-2-2-9-9-9-9-9-9-9-9-9-9-9-9-9-9-9-9--|
 E|--5-5-5-5-5-5-5-5-0-0-0-0-0-0-0-0-7-7-7-7-7-7-7-7-7-7-7-7-7-7-7-7--|
 
pm[  . . . . . . . . . . . . . . . .                                  ]
 e|-------------------------------------------------------------------|
 B|-------------------------------------------------------------------|
 G|-------------------------------------------------------------------| x1
 D|--7-7-7-7-7-7-7-7-2-2-2-2-2-2-2-2-9-9-9-9-9-9-9-9-9-9-9-9-9-9-9-9--|
 A|--7-7-7-7-7-7-7-7-2-2-2-2-2-2-2-2-9-9-9-9-9-9-9-9-9-9-9-9-9-9-9-9--|
 E|--5-5-5-5-5-5-5-5-0-0-0-0-0-0-0-0-7-7-7-7-7-7-7-7-7-7-7-7-7-7-7-7--|
 
 
[chorus]
pm[                                                  . . . . . . . . .  ]
 e|---------------------------------------------------------------------|
 B|---------------------------------------------------------------------|
 G|--9-9-----9-9-----9-9-----9-9-----9-9-----9-9-----9-9-9-9-9-9-9-9-9--|
 D|--9-9-9-9-9-9-9-9-9-9-9-9-9-9-9-9-9-9-9-9-9-9-9-9-9-9-9-9-9-9-9-9-9--|
 A|--7-7-9-9-7-7-9-9-7-7-9-9-7-7-9-9-7-7-9-9-7-7-9-9-7-7-7-7-7-7-7-7-7--|
 E|------7-7-----7-7-----7-7-----7-7-----7-7-----7-7--------------------|
 
 
[bridge]
pm[  . . . . . . .                 ]
e||--------------------------------||
B||--------------------------------||
G||--------------------------------||
D||--------------------------------|| x4
A||--------------------------------||
E||--0-3-2-0-2-3-2--0---0---0-2-3--||


[verse two]
e||--------------------------------||
B||--------------------------------||
G||--------------------------------||
D||--2-2--4-4-4--5-5-5-5--4-4-4-4--|| x8
A||--2-2--4-4-4--5-5-5-5--4-4-4-4--||
E||--0-0--2-2-2--3-3-3-3--2-2-2-2--||

pm[  . . . . . . . . . . . . . . . . . . . . . . . . . .              ]
 e|-------------------------------------------------------------------|
 B|-------------------------------------------------------------------|
 G|-------------------------------------------------------------------|
 D|--7-7-7-7-7-7-7-7-2-2-2-2-2-2-2-2-9-9-9-9-9-9-9-9-9-9-9-9-9-9-9-9--| x1
 A|--7-7-7-7-7-7-7-7-2-2-2-2-2-2-2-2-9-9-9-9-9-9-9-9-9-9-9-9-9-9-9-9--|
 E|--5-5-5-5-5-5-5-5-0-0-0-0-0-0-0-0-7-7-7-7-7-7-7-7-7-7-7-7-7-7-7-7--|
 
pm[  . . . . . . . . . . . . . . . .                                  ]
 e|-------------------------------------------------------------------|
 B|-------------------------------------------------------------------|
 G|-------------------------------------------------------------------| x1
 D|--7-7-7-7-7-7-7-7-2-2-2-2-2-2-2-2-9-9-9-9-9-9-9-9-9-9-9-9-9-9-9-9--|
 A|--7-7-7-7-7-7-7-7-2-2-2-2-2-2-2-2-9-9-9-9-9-9-9-9-9-9-9-9-9-9-9-9--|
 E|--5-5-5-5-5-5-5-5-0-0-0-0-0-0-0-0-7-7-7-7-7-7-7-7-7-7-7-7-7-7-7-7--|
 
 
[chorus two]
 e|---------------------------------------------------------------------|
 B|---------------------------------------------------------------------|
 G|--9-9-----9-9-----9-9-----9-9-----9-9-----9-9-----9-9-9-9-9-9-9-9-9--|
 D|--9-9-9-9-9-9-9-9-9-9-9-9-9-9-9-9-9-9-9-9-9-9-9-9-9-9-9-9-9-9-9-9-9--|
 A|--7-7-9-9-7-7-9-9-7-7-9-9-7-7-9-9-7-7-9-9-7-7-9-9-7-7-7-7-7-7-7-7-7--|
 E|------7-7-----7-7-----7-7-----7-7-----7-7-----7-7--------------------|
comments
We did not receive enough feedback on this tab! Please rate:
print report bad tab
1 2 3 4 5
I want to post or [tab]
guest
You may want to rate the tab now too:
select rating
Please do not post tabs as comments. Select "correction" instead!