Oops, an error
Loading. Please wait.

Tokyo Rose Tab

261 views 3 this week
no commentswrite comment
1 2 3 4 5
please rate
add to favorites
launch autoscroll
font size
0
reset
how to read this tab
guitar tuner
Autoscroll
slow
fast
+/-
esc
set tempo
stop
Help us to improve Ultimate-Guitar.com Take our survey!
×
Author
Difficulty
intermediate
--------------------------------------------------------------
Artist    :  U.K. Subs
Song      :  Tokyo Rose
Album     :  Work In Progress
--------------------------------------------------------------
Tabbed By :  Ricky Thomson
Date      :  7th July 2012
Contact   :  punkalert@gmail.com
--------------------------------------------------------------


b  = bend
/  = slide up
\  = slide down
~  = vibrato
pm = palm mute


Here's the whole song except for the solo (on the cd, a second
guitar track plays the chorus in the background which works
if you just want to play along to the record.)

Have fun!


[intro] 

e|--------------------------------------|
B|--------------------------------------|
G|---------------------------7---4~-----|
D|--5---7---9--9-10-9-7---5-------------|
A|--------------------------------------|
E|--------------------------------------|


e|-------------------------------------------------------|
B|-------------------------------------------------------|
G|--------------------------------------12------12-11----|
D|--5---7---9--9-10-9-7---5--7-9-10-9/12-----------------|
A|-------------------------------------------------------|
E|-------------------------------------------------------|



[verse one]

pm[  . .     . .     . .     . .    x4                  ]
e||---------------------------------||------------------|
B||---------------------------------||------------------|
G||---------------------------------||--7-------7-------|
D||--7-7-7/--9-9-9\--5-5-5/--7-7-7--||--7-------7-------|
A||--5-5-5/--7-7-7\--3-3-3/--5-5-5--||--5-------5-------|
E||---------------------------------||------------------|

pm[  . .     . .     . .     . .    x4                     ]
e||---------------------------------||---------------------|
B||---------------------------------||---------------------|
G||---------------------------------||--7-------7-7-7-7-7--|
D||--7-7-7/--9-9-9\--5-5-5/--7-7-7--||--7-------7-7-7-7-7--|
A||--5-5-5/--7-7-7\--3-3-3/--5-5-5--||--5-------5-5-5-5-5--|
E||---------------------------------||---------------------|



[chorus]

e|------------------------------------------------------------|
B|------------------------------------------------------------|
G|--------7-7-7--9--9-9--5-5-5--------7-7-7--5-5-5-5-5-5-5-5--|
D|--5--5--7-7-7--9--9-9--5-5-5--5--5--7-7-7--5-5-5-5-5-5-5-5--|
A|--5--5--5-5-5--7--7-7--3-3-3--5--5--5-5-5--3-3-3-3-3-3-3-3--|
E|--3--3------------------------3--3--------------------------|

pm[                                           . . . . . . . . . . . .          ]
 e|----------------------------------------------------------------------------|
 B|----------------------------------------------------------------------------|
 G|--------7-7-7--9--9-9--5-5-5--------7-7-7-----------------------------------|
 D|--5--5--7-7-7--9--9-9--5-5-5--5--5--7-7-7--5-5-5-5-5-5-5-5-5-5-5-5-5-4-5-4--|
 A|--5--5--5-5-5--7--7-7--3-3-3--5--5--5-5-5--3-3-3-3-3-3-3-3-3-3-3-3-3-2-3-2--|
 E|--3--3------------------------3--3------------------------------------------|
 
 
 
[verse two]

pm[  . .     . .     . .     . .    x4                     ]
e||---------------------------------||---------------------|
B||---------------------------------||---------------------|
G||---------------------------------||--7-------7-7-7-7-7--|
D||--7-7-7/--9-9-9\--5-5-5/--7-7-7--||--7-------7-7-7-7-7--|
A||--5-5-5/--7-7-7\--3-3-3/--5-5-5--||--5-------5-5-5-5-5--|
E||---------------------------------||---------------------|



[chorus]

e|------------------------------------------------------------|
B|------------------------------------------------------------|
G|--------7-7-7--9--9-9--5-5-5--------7-7-7--5-5-5-5-5-5-5-5--|
D|--5--5--7-7-7--9--9-9--5-5-5--5--5--7-7-7--5-5-5-5-5-5-5-5--|
A|--5--5--5-5-5--7--7-7--3-3-3--5--5--5-5-5--3-3-3-3-3-3-3-3--|
E|--3--3------------------------3--3--------------------------|

pm[                                           . . . . . . . . . . . .          ]
 e|----------------------------------------------------------------------------|
 B|----------------------------------------------------------------------------|
 G|--------7-7-7--9--9-9--5-5-5--------7-7-7-----------------------------------|
 D|--5--5--7-7-7--9--9-9--5-5-5--5--5--7-7-7--5-5-5-5-5-5-5-5-5-5-5-5-5-4-5-4--|
 A|--5--5--5-5-5--7--7-7--3-3-3--5--5--5-5-5--3-3-3-3-3-3-3-3-3-3-3-3-3-2-3-2--|
 E|--3--3------------------------3--3------------------------------------------|
 


[bridge]

pm[  . . . . . . . .  . . . . . . . .  . . . . . . . .  . . . . . . .    ] x2
e||----------------------------------------------------------------------||
B||----------------------------------------------------------------------||
G||----------------------------------------------------------------------||
D||--7-7-7-7-7-7-7-7/-9-9-9-9-9-9-9-9\-5-5-5-5-5-5-5-5/-7-7-7-7-7-7-7-7--||
A||--5-5-5-5-5-5-5-5/-7-7-7-7-7-7-7-7\-3-3-3-3-3-3-3-3/-5-5-5-5-5-5-5-5--||
E||----------------------------------------------------------------------||

e|---------------------|
B|---------------------|
G|--7----7-7-7-7-7-7---|
D|--7----7-7-7-7-7-7---|
A|--5----5-5-5-5-5-5---|
E|---------------------|



[verse three]
                                    x4                     
e||---------------------------------||---------------------|
B||---------------------------------||---------------------|
G||---------------------------------||--7-------7-7-7-7-7--|
D||--7-7-7/--9-9-9\--5-5-5/--7-7-7--||--7-------7-7-7-7-7--|
A||--5-5-5/--7-7-7\--3-3-3/--5-5-5--||--5-------5-5-5-5-5--|
E||---------------------------------||---------------------|



[chorus]

e|------------------------------------------------------------|
B|------------------------------------------------------------|
G|--------7-7-7--9--9-9--5-5-5--------7-7-7--5-5-5-5-5-5-5-5--|
D|--5--5--7-7-7--9--9-9--5-5-5--5--5--7-7-7--5-5-5-5-5-5-5-5--|
A|--5--5--5-5-5--7--7-7--3-3-3--5--5--5-5-5--3-3-3-3-3-3-3-3--|
E|--3--3------------------------3--3--------------------------|

pm[                                           . . . . . . . . . . . .          ]
 e|----------------------------------------------------------------------------|
 B|----------------------------------------------------------------------------|
 G|--------7-7-7--9--9-9--5-5-5--------7-7-7-----------------------------------|
 D|--5--5--7-7-7--9--9-9--5-5-5--5--5--7-7-7--5-5-5-5-5-5-5-5-5-5-5-5-5-4-5-4--|
 A|--5--5--5-5-5--7--7-7--3-3-3--5--5--5-5-5--3-3-3-3-3-3-3-3-3-3-3-3-3-2-3-2--|
 E|--3--3------------------------3--3------------------------------------------|
 
 
 
[outro]

e|--------------------------------------|
B|--------------------------------------|
G|---------------------------7---4~-----|
D|--5---7---9--9-10-9-7---5-------------|
A|--------------------------------------|
E|--------------------------------------|


e|-----------------------------------------------------------------------|
B|----------------------------------------------13---13\12-10--8---------|
G|--------------------------------------12-------------------------------|
D|--5---7---9--9-10-9-7---5--7-9-10-9/12---------------------------------|
A|-----------------------------------------------------------------------|
E|-----------------------------------------------------------------------|
Suggest correction
Give kudos to tab author, rate the tab!
1 2 3 4 5
comments
print report bad tab
guest
You may want to rate the tab now too:
select rating
Please do not post tabs as comments. Select "correction" instead!