Oops, an error
Loading. Please wait.

Sky Overture Tab

5,683 views 9 this week
no commentswrite comment
1 2 3 4 5
please rate
add to favorites
launch autoscroll
font size
0
reset
how to read this tab
guitar tuner
Autoscroll
slow
fast
+/-
esc
set tempo
stop
Help us to improve Ultimate-Guitar.com Take our survey!
×
Author
zsnopek 44
Okay.. This is my first tab.. don't pay attention to the 
timing of the notes.. it was very tricky to 
tab it so i intentionaly left wrong timing on 
some places.. BUT you have right (mostly) notes.. 
listen to the record for correct timing..
enjoy! ;)


Track 1
      S  S   S  S  H          Q       W                 
E||------------12------------------|-------------------|
B||--12-----12----15b~-------------|-------------------|
G||-----14b------------------------|-------------------|
D||--------------------------------|-------------------|
A||--------------------------------|-------------------|
E||--------------------------------|-------------------|


   S  S   S  S  S  S  S  S  S  S  Q      E     W                 
---------------12----15-12------------------|-------------------|
--12-----12-15----15-------15-12-15b~----L--|-------------------|
-----14b------------------------------------|-------------------|
--------------------------------------------|-------------------|
--------------------------------------------|-------------------|
--------------------------------------------|-------------------|


   Q     Q      H            W                    E   Q        E   H          
---------------17\--------|-------------------|--15--17pbr----15--17~--------|
--17----20-----17\--------|-------------------|--15--17pbr----15--17~--------|
--16----19b---------------|-------------------|------------------------------|
--------------------------|-------------------|------------------------------|
--------------------------|-------------------|------------------------------|
--------------------------|-------------------|------------------------------|


  W                    Q.        E   E   E   Q        W                 
-------------------|--16pb------15--14--15---------|-------------------|
-------------------|------------------------17~----|-------------------|
-------------------|-------------------------------|-------------------|
-------------------|-------------------------------|-------------------|
-------------------|-------------------------------|-------------------|
-------------------|-------------------------------|-------------------|


   E   E   E   Q.        E   E      E   H         Q    E     W                 
--12--14--15--15pb------15--14--|--15--12~----------------|-------------------|
--------------------------------|-------------------------|-------------------|
--------------------------------|-------------------------|-------------------|
--------------------------------|-------------------------|-------------------|
--------------------------------|-------------------------|-------------------|
--------------------------------|-------------------------|-------------------|


   Q       E   Q      E   E   E      E   H         Q    E     W                 
---------------------------------|-------------------------|-------------------|
--19b~----20--19~----20--19--17--|--19---------------------|-------------------|
---------------------------------|------16~----------------|-------------------|
---------------------------------|-------------------------|-------------------|
---------------------------------|-------------------------|-------------------|
---------------------------------|-------------------------|-------------------|


   S  S  S  S  S  S  S  S  S  S  S  S  S  S  S  S  
-----------------------------14-17-20-20-17-14----|
--------------13-16----13-16----------------------|
-----------14-------14-------------------------20-|
-----13-16----------------------------------------|
--14----------------------------------------------|
--------------------------------------------------|


   S  S  S  S  S  S  S  S  H            E  S E  Q    E  S E  S S  
-------------------------------------|---------------------------|
-------------------------------------|---------------------------|
--17-14-20-17-14---------------------|----------4----4--4--------|
-------------------------------------|---------------------------|
-----------------18-15-12-14~--------|--2--2--------------0--0---|
-------------------------------------|---------------------------|


  S Q    E  S E  S E  E.     S E  S E  S E  Q    E  S  
--------------------------|---------------------------|
--------------------------|---------------------------|
----4----4--4---------4---|--L-4--4---------4----4--4-|
--------------------------|---------------------------|
--------------------------|---------------------------|
--------------3--3--------|---------2--2--------------|


  E  S E  Q    E  S E  S S    Q    E  S E  S E  E  S S  
---------------------------|---------------------------|
---------------------------|---------------------------|
----------4----4--4-5--5---|--5----5--5-6--6----6--6-6-|
---------------------------|---------------------------|
--2--2---------------------|---------------------------|
---------------------------|---------------------------|


  E  E  E   Q     Q    E      S  S  S  S  S  S  Q      S  S  S  S  S  S  
--------------------------|--------14-19-14-----------------14-17-14----|
--------------------------|-----15----------15-----------15----------15-|
--8-----8--11~------------|--16----------------16~----14----------------|
-----9--------------------|---------------------------------------------|
--------------------------|---------------------------------------------|
--------------------------|---------------------------------------------|


   Q     S  S  S  S  S  S  Q     S  S     S  S  S  S  Q    H         
--------------10-15-10----------------|--10-14-10-------------------|
-----------12----------12----------12-|-----------12----------------|
--14----12----------------12----11----|--------------11-------------|
--------------------------------------|-----------------------------|
--------------------------------------|-----------------------------|
--------------------------------------|-----------------------------|


   S  S  S  E   S  S  S  E   S  S  S  S  S  S     S  S  S  Q     H        S  
--15--------------14--------------------15-19-|--14-------------------------|
-----15--------15--------------------17-------|-----15----------------------|
--------16-----------16-----------16----------|--------14-------------------|
-----------17-----------16-----17-------------|-----------16~---------------|
----------------------------19----------------|-----------------------------|
----------------------------------------------|-----------------------------|


  S S S S S S E.  E  S S S  E      S  E  E   E  H        S  
-------------------------------|---------------------------|
--5-5-5-5-7-5--------8-8-8-10--|--12-10--8--10-------------|
--------------7---4------------|---------------------------|
-------------------------------|---------------------------|
-------------------------------|---------------------------|
-------------------------------|---------------------------|


   S  S  S  S  S  S  S  S  S   Q      S  S  S  
--------------15-19-14---------------15-15-15-|
-----------17----------15---------------------|
--------16----------------14~-----------------|
-----17-----------------------16~-------------|
--19------------------------------------------|
----------------------------------------------|


   S  S  S  E   E   E  E.   S  E   S     S  S  S  Q      H          S     
--15-17-19-17--15--17------17-19--19-|--19-20-17-19~----22b--------22pbr-|
-------------------------------------|-----------------------------------|
-------------------------------------|-----------------------------------|
-------------------------------------|-----------------------------------|
-------------------------------------|-----------------------------------|
-------------------------------------|-----------------------------------|


                                              \2 
   S  S  E   S  S  S  S  S  S  S  S  S  S  S  S  
--19-18-19--17-15-------------------------------|
------------------19-20-19-17-------------------|
------------------------------20-21-20-17-------|
------------------------------------------19-21-|
------------------------------------------------|
------------------------------------------------|


now it's imposible to play that because we don't have these high frets so we 
skip this part
            
   W                                                               
----------------------------------------------|-------------------|
----------------------------------------------|-------------------|
----------------------------------------------|-------------------|
---L------------------------------------------|-------------------|
----------------------------------------------|-------------------|
----------------------------------------------|-------------------|


                      S S S S S S S S S S S S S S S S  
-------------------|----------------------------------|
-------------------|--------------------------4-------|
-------------------|--4-5---4-5---4-------------5-4---|
-------------------|------7-----7---7-5-4-----------7-|
-------------------|----------------------7-6---------|
-------------------|----------------------------------|


  S S S S S S S S  S S S  S  S  S E      E   S S S  S S   
----------------------------------8~--|--L--------------||
------7-4---------10-7---13-10--------|-----10-7--------||
----------5-4----------8-------11-----|----------8------||
--5-4---------7-5---------------------|------------10-7-||
--------------------------------------|-----------------||
--------------------------------------|-----------------||




http://www.ulijonroth.com/



Duration Legend
---------------
W - whole
H - half
Q - quarter
E - 8th
S - 16th
T - 32nd
X - 64th
. - note dotted
|-n-|  - n-tuplets


Tablature Legend
----------------
L - tied note
x - dead note
g - grace note
(n) - ghost note
> - accentuded note
NH - natural harmonic
AH - artificial harmonic
TH - tapped harmonic
SH - semi harmonic
PH - pitch harmonic
h - hammer on
p - pull off
b - bend
br - bendRelease
pb - preBend
pbr - preBendRelease
brb - bendReleaseBend
\n/ - tremolo bar dip
\n - tremolo bar dive
-/n - tremolo bar Release up
/n\ - tremolo bar inverted dip
/n - tremolo bar return
-\n - tremolo bar Release down
S - shift slide
s - legato slide
/ -  slide into from below or out of upwards
\ -  slide into from above or out of downwards
~ - vibrato
W - wide vibrato
tr - trill
TP - tremolo picking
T - tapping
S - slap
P - pop
< - fade in
^ - brush up
v - brush down
Suggest correction
What's this?
You can suggest a correction to this tab. Community and Mods will review your correction and vote to approve or reject it.
comments
We did not receive enough feedback on this tab! Please rate:
print report bad tab
1 2 3 4 5
guest
You may want to rate the tab now too:
select rating
Please do not post tabs as comments. Select "correction" instead!