Oops, an error
Loading. Please wait.

Si Terminamos chords

151 views 1 this week
no commentswrite comment
1 2 3 4 5
3 more votes to show rating
add to favorites
×
Save as Personal and add changes to this tab that will be seen only by you. Learn more ›
×
You can save this tab as Personal to edit and correct it or add notes. All changes will be seen only by you. Learn more »
launch autoscroll
font size
0
reset
transpose
0
reset
display chords
guitar tuner
edit
Autoscroll
slow
fast
+/-
esc
set tempo
stop
Author
Difficulty
intermediate
Strumming
There is no strumming pattern for this song yet. and get +5 IQ
[Intro]

E|-----0--0--4--2--0--0--|
B|-----0--2--5--3--2--2--|
G|--2--------------------|
D|-----------------------|
A|-----------------------|
E|-----------------------|

E|--4--4--4--4--2--2--0--0--0--|
B|--5--5--5--5--3--3--2--2--2--|
G|-----------------------------|
D|-----------------------------|
A|-----------------------------|
E|-----------------------------|

E|--0--0--4--4--2--2/4--4--|
B|--2--2--5--5--3--3/5--5--|
G|----------------------|
D|----------------------|
A|----------------------|
E|----------------------|

E|--16--16--16--16--14--14--12--12--12--|
B|--17--17--17--17--15--15--14--14--14--|
G|--------------------------------------|
D|--------------------------------------|
A|--------------------------------------|
E|--------------------------------------|

E|--12--14--16--16--14--14--14--14--14--|
B|--14--15--17--17--15--15--15--15--15--|
G|--------------------------------------|
D|--------------------------------------|
A|--------------------------------------|
E|--------------------------------------|

E|--16--16--16--16--14--14--12--10--12--10-"-10-"-|
B|--17--17--17--17--15--15--14--12--14--12-"-12-"-|
G|------------------------------------------------|
D|------------------------------------------------|
A|------------------------------------------------|
E|------------------------------------------------|

E|--12--12--12--14--14--12--12--10--10—9----|
B|--14--14--14--15--15--14--14--12--12—10---|
G|------------------------------------------|
D|------------------------------------------|
A|------------------------------------------|
E|------------------------------------------|

E|--------------------------------------------------------|
B|--10-9-7------------------------------------------------|
G|---------9-7-9-7-6------------------------------1/2-----|
D|-------------------9-7--7-6-4-2-4-2-0---------2---------|
A|--------------------------------------4-2-0-4--------0--|
E|--------------------------------------------------------|


[Intro]

(A  C#m  D  Bm  E  A)


[Verse]

A
Si Terminamos
A                                     F#m
Si Terminamos no quiero que sea un momento
F#m                                      D
Si Terminamos  no quiero que andes diciendo
Bm                              E
Que fui el culpable  que la culpa solo la tenga yo.


[Verse]

A
Si tu te marchas
A                                   F#m
Y sin razones por la cual tu abandonarme
F#m                                 D
Y explicaciones ninguna quieres darme
Bm                       E
Aunque me duela  yo me alejo de tu amor.


[Chorus]

A
Pero que hago yo
A                                    C#m
Que se supone donde meto a todo este amor
C#m                                     D
Cada caricia  cada beso que aqui se quedo
Bm                      E
Solo recuerdos  solo quedan solo corazón.


[Chorus]

A
Yo no voy a llorar
A                                     C#m
Y te prometo que mi luego te voy a olvidar
C#m                                   D
Y ya te veo de rodillas  vendras a rogar
Bm                          E
Pero no corazon  hoy ya no puedo no te puedo perdonar.


[Requinto]

(A  C#m  D  Bm  E  A)


[Chorus]

A
Pero que hago yo
A                                     C#m
Que se supone donde meto a todo este amor
C#m                                     D
Cada caricia  cada beso que aqui se quedo
Bm                     E
Solo recuerdos  solo quedan solo corazon...


[Chorus]

A
Yo no voy a llorar
A                                     C#m
Y te prometo que mi luego te voy a olvidar
C#m                                    D
Y ya te veo de rodillas  vendras a rogar
Bm                         E                                A
Pero no corazon  hoy ya no puedo no te puedo perdonar.


************************************

| /  Slide up

************************************

            
            
Suggest correction
Creating personal tab
Creating personal tab
You can edit any tab online and save it as your Personal.

You can edit, replace or remove any tab part or add personal notes – all changes will be seen only by you.

Personal tabs can be accessed anytime from any device, even offline.
Learn more »
Give kudos to tab author, rate the tab!
1 2 3 4 5
comments
print report bad tab
guest
You may want to rate the tab now too:
select rating
Wanna post a correction for this tab? Suggest correction