Oops, an error
Loading. Please wait.

Kobenhavn Chords

9,103 views 75 this week
3 commentsread comments
1 2 3 4 5
accurate
x 10
add to favorites
launch autoscroll
font size
0
reset
transpose
0
reset
simplify chords
display chords
guitar tuner
Tab Pro tools
  • play this tab
  • loop segment
  • change instrument
  • show fretboard
  • metronome
×
Best way to learn
"Kobenhavn"
Autoscroll
slow
fast
+/-
esc
set tempo
stop
Difficulty
intermediate
Tabs til fingerspil i intro og vers (sådan ca.):

    Dm (Dm7)                                     Am (Am7)
e|-------1----------------------1----------------------------------------------------||
H|--1h3-----3----1h3-1-----1h3-----3----1h3-1------1------------1------1-----------1-||
G|--2------------2---2-----2------------2---2----2----2-----0h2-----2----2-----0h2---||
D|--0-----0---0------------0-----0---0-----------2----------2-------2----------2-----||
A|-----------------------------------------------0---0--0-----------0---0--0---------||
E|-----------------------------------------------------------------------------------||


Dm, Am, Dm, Am
 
       Dm                   Am
Du har danset med mig, i 20 år
        Dm                                   Am
Du har lært mig de trin jeg følger, men ikke forstår


     Bb              F        C    (Csus4)   C
København, du er kun alt jeg har
         Bb      Dm    G  
Når dine tusinde øjne lukker i
          Bb     Dm   G
og mørket maler dig uendelig
        Bb                F      C    (Csus4)   C
og dine døtre, de vil mig intet godt
        Bb    Dm   G
og dine øjne
          F        C       F
lyser mig hjem når jeg får nok


           Dm                         Am
Jeg har et lille problem, jeg kke kan finde
       Dm                        Am
Før du viser mig hvor, du gemmer hende


     Bb               F       C    (Csus4)   C
København, jeg er din sidste søn
         Bb      Dm    G  
Når dine tusinde øjne lukker i
          Bb     Dm   G
og mørket maler dig uendelig
        Bb                F      C    (Csus4)   C
og dine døtre, de vil mig intet godt
        Bb    Dm   G
og dine øjne
          F        C       Dm
lyser mig hjem når jeg får nok


                C      Bb           Dm
Mørket vil have mere, dagene bliver korte
                        C      Bb               Dm
Jeg har brugt de sidste kroner, på at male mine sorte


     Bb                     F       C    (Csus4)   C
København, dine øjne bliver flere og flere
        Bb    Dm   G      Bb   Dm   G
og dine døtre
     Bb                    F    C      Bb    Dm   G
dine døtre, fortæl dem jeg ikke venter mere
    Bb   Dm     G
Jeg ikke venter mere
    Bb   Dm     G
Jeg ikke venter mere
               F    C      F
Fortæl dem jeg ikke venter mere 
comments
print report bad tab
3 comments total.
0 reply
Swoosh wrote on August 8 2013, 05:22 am

Fin tab. Kan vi mon få en tab af BLÅ også? Det er ikke lykkes mig at lave et tilfredsstillende resultat endnu! :(

0 reply
emil.s.larsen wrote on March 22 2015, 09:18 am

Capo 6th fret

Jeg synes personligt dette er nemmere at spille og at det lyder godt!


e|----0----------------0----------------------------------------------
B/H|------1----------------1--------------------------------------------
G|---2---2---2--0-----2---2---2--0-----0---------------0--------------
D|--2--------2--2----2--------2--2----2--2----2--0----2--2----2--0----
A|-0--------0--0----0--------0-------2----2---2--2---2----2---2--2----
E|------------------------------3---0--------0--0---0--------0--3-----

0 reply
emil.s.larsen wrote on March 22 2015, 09:20 am


e|----0----------------0----------------------------------------------
B|------1----------------1--------------------------------------------
G|---2---2---2--0-----2---2---2--0-----0---------------0--------------
D|--2--------2--2----2--------2--2----2--2----2--0----2--2----2--0----
A|-0--------0--0----0--------0-------2----2---2--2---2----2---2--2----
E|------------------------------3---0--------0--0---0--------0--3-----


De andre tabs gik galt..

I want to post or [tab]
guest
You may want to rate the tab now too:
select rating
Please do not post tabs as comments. Select "correction" instead!