Oops, an error
Loading. Please wait.

No Existe Amor Igual Tab

16 views 1 this week
no commentswrite comment
1 2 3 4 5
3 more votes to show rating
add to favorites
launch autoscroll
font size
0
reset
how to read this tab
guitar tuner
×
Best way to learn
"No Existe Amor Igual"
Autoscroll
slow
fast
+/-
esc
set tempo
stop
esta es una de mis canciones favoritas en cuanto la escuche la quise
sacar en la guitarra y como no encontre la tablatura en ninguna
parte, la saqueyo y la puse en el aqui para los que se kieran aprender
esta kancion


                                  1                         2
                          ________|________          ______|_____
intro:                    |               |          |          |  x2
----------------|---------2-2-2-2|-2-2-2-2--------|----------------|
-5---3----------|-3-------3-3-3-3|-3-3-3-3--1--3--|--5-3-5-3-5-3---|
-5---4---4----4-|-4---4----------|----------2--4--|--5-4-5-4-5-4---|
---------5----5-|-----5----------|----------------|----------------|
----------------|----------------|----------------|----------------|
----------------|----------------|----------------|----------------|
en el 1 es rapido el rasgueo kreo k se llama ya tu dandole el tiempo
k dura en la kancion lo mismo es en el 2


C                 G
me gusta tu pelo, me gusta tu voz,
F                C              G
eres tan hermosa igual que una flor,
C              G
parece mentira poderte besar
F               C           G
tenerte cerkita y poderte tocar
A                    C
estar en tus brazos ya es mi obsesion
F                    G
si no estas conmigo pierdo la razon


C                G
no existe amor igual
F                                    G
cuando te tengo mi mundo se llena de felicidad,
C                G
no existe amor igual
F                                            G
es tan bonito cuando estamos juntos no tiene final,
A                                                   G
gracias a dios por permitir que fuera tenerte a mi lado
      C              G
y el amor que tu me das.

                                                                   X2
----------------|---------2-2-2-2|-2-2-2-2--------|----------------|
-5---3----------|-3-------3-3-3-3|-3-3-3-3--1--3--|--5-3-5-3-5-3---|
-5---4---4----4-|-4---4----------|----------2--4--|--5-4-5-4-5-4---|
---------5----5-|-----5----------|----------------|----------------|
----------------|----------------|----------------|----------------|
----------------|----------------|----------------|----------------|


C                      G
parece mentira poderte besar
F                 C       G
tenerte cerkita y poderte tocar
C                            G
estar en tus brazos ya es mi obsesion
F                   C         G
si no estas conmigo pierdo la razon

C               G
no existe amor igual
F                                    G
cuando te tengo mi mundo se llena de felicidad,

C              G
no existe amor igual
F                                            G
es tan bonito cuando estamos juntos no tiene final
A                                                  G
gracias a dios por permitir que fuera tenerte a mi lado
      F              G
y el amor que tu me das.
Suggest correction
Give kudos to tab author, rate the tab!
1 2 3 4 5
comments
print report bad tab
guest
You may want to rate the tab now too:
select rating
Wanna post a correction for this tab? Suggest correction