Oops, an error
Loading. Please wait.

Todo Tiempo Nuevo Es Mejor Tab

19 views 1 this week
no commentswrite comment
1 2 3 4 5
3 more votes to show rating
add to favorites
launch autoscroll
font size
0
reset
how to read this tab
guitar tuner
Autoscroll
slow
fast
+/-
esc
set tempo
stop
Help us to improve Ultimate-Guitar.com Take our survey!
×
Aquí le va un tema Re-Copado!!!... los punteos son mas
O menos estos, se hacen con Eléctrica al igual que las
Notas 5 (quintas)lo demás puede ser en guitarra común:

Intro:
 F#m            E         D   E      D E    F#m
e|-----------------------12--12-------------------------
B|----10-12-12h14-14p12---10---9-10h9h7--7---7----------
G|-11-------------------------------------9-6-----------
D|------------------------------------------------------
A|------------------------------------------------------
E|------------------------------------------------------

  F#m          E     D              E       D E     F#m
e|------------------------------------------------------
B|------------------------------------------------------
G|-----------9-9----------------------------------------
D|--7-9-9h11-----12-12-11--11-12-11-9--11-9-7-74-4-2-4-
A|-9-------------------------------------------------4--
E|------------------------------------------------------

F#m                              E
Te veo tan cansada de vagar y vagar
D                             A E
Tus ojos agotados de tanto llorar
D                             F#m
Y hoy estas aquí otra vez de cero
Bm                  E
Porque se de necesitar.
F#m                         E
Yo se que no es fácil perdonar
D                             A E
Y aun así te han roto el corazón
D                              F#m
Comenzar de nuevo tampoco es fácil
                        D|-------2--4-2---------------
                        A|---2-4----------------
                        E|--5--------------
Bm                             E
Pero tenes que hacerlo porque hoy


Coro:
D5            E5       F#m5
Todo tiempo nuevo es mejor
D5             E5            F#m5
Y si estas con el es mucho mejor
D5         E5                    F#m5
Deja el pasado el pasado en el pasado
D5           E5          F#m5
En otro amanecer despertaras.


(Se repite Intro)

  F#m            E         D   E      D E    F#m
e|-----------------------12--12-------------------------
B|----10-12-12h14-14h12---10---9-10h9h7--7---7----------
G|-11-------------------------------------9-6-----------
D|------------------------------------------------------
A|------------------------------------------------------
E|------------------------------------------------------
E|------------------------------------------------------

  F#m          E     D              E       D E     F#m
e|------------------------------------------------------
B|------------------------------------------------------
G|------------------------------------------------------
D|-----------9-9----------------------------------------
A|--7-9-9h11-----12-12-11--11-12-11-9--11-9-7-74-4-2-4-
E|-9-------------------------------------------------4--
E|------------------------------------------------------


                       e|---------
                       B|--11b-10-----
F#m                      E
Te parece que todo es final
                 e|---------------
                 B|--------------------10---
                 G|-11-9-------9------9--11---
                 D|------12-11------11---
D                     A E
Pero ya nada es el final
                             e|-------
                             B|----10----
                             G|---9--11----
                             D|-11-----
D                        F#m
Porque hoy aquí todo comienza
                 e|----------
                 B|--10-9-------
                 G|-------11-9--------
Bm                     E
Seguirle a el es comenzar
e|---------------------------------
B|10-------------------10p9-9-----------11b10-------
F#m                     E
Y no quiero mas decir todo otra vez
                      e|-----------------------
                      B|---------------------10----
                      G|-11-9-------9-------9--11-----
                      D|-------12-11------11------
D                          A E
Vos ya sabes que Dios es amor
                    e|-----------------
                    B|---------------10---
                    G|-11---11------9--11---
                    D|------------11-------
D                      F#m
Hoy restaría solo abrazarte
               e|-------------------
               B|-10-9--------------
               G|-----------11-10---------
               D|----------------------12-11----------
               A|----------------------------12-11-9---
               E|-----------------------------------12-10-
Bm                      E
Y decirte con esta canción.


Coro:
D5                E5       F#m5
Que todo tiempo nuevo es mejor
D5             E5            F#m5
Y si estas con el es mucho mejor
D5         E5                    F#m5
Deja el pasado el pasado en el pasado
D5           E5          F#m5
En otro amanecer despertaras.

   D           E         F#m
e|----------7------12-10-9--12---10---9-----------------
B|--10-9-----10---------------10---10-------------------
G|-7----7--7---9--9-------------------------------------
D|------------------------------------------------------
A|------------------------------------------------------
E|------------------------------------------------------
   D           E         F#m                   D     E  F#m
e|----------7------12-10-9--12---10---9------------12-12------
B|--10-9-----10---------------10---10--10/14b-12-10--9--7-7-7-
G|-7----7--7---9--9----------------------------------------9--
D|------------------------------------------------------------
A|------------------------------------------------------------
E|------------------------------------------------------------
           D      E  F#m                  D5
e|--------------12-12-----------------------------------
B|-10/14b-12-10---9--7----------------------------------
G|--------------------11h9-11-9-------------------------
D|-----------------------------11-9---------------------
A|---------------------------------12-9-----------------
E|-------------------------------------12-10------------


                                 G|-----2---------2--
                                 D|--2-4-4-2-4-2-4-4-
                                 A|-4---------4------
//D5//                //E5//
     Que todo tiempo nuevo es mejooor
                                 G|-----2---------2--
                                 D|--2-4-4-2-4-2-4-4-
                                 A|-4---------4------
//D5//             //E5//
     Y si estas con el es mucho mejooor
                                 e|-----5---------5---
                                 B|--5-7-7-5-7-5-7-7--
                                 G|-6---------6-------
//D5//         //E5//
     Deja el pasado el pasado en el pasado
                                 G|-----2---------2--
                                 D|--2-4-4-2-4-2-4-4-
                                 A|-4---------4------
//D5//          //E5//
     En otro amanecer despertaras.

B|------------------------------
G|-----------------------4----6-
D|-4------------7-6-------------
    En otro amanecer despertaras,

B|--------------------------
G|-12b-10h11h12bp11---------
D|--------------------------
    Tu despertaras

B|--------------------------------
G|-----------------------4----22b-
D|-4------------7-6---------------
    En otro amanecer despertaras,

Final:
F#m            E         D   E      D E    F#m
e|-----------------------12--12-------------------------
B|----10-12-12h14-14h12---10---9-10h9h7--7-------------
G|-11-------------------------------------9-------------
D|-----------------------------------------11/4---------
A|------------------------------------------------------
E|------------------------------------------------------


Capas que alguna parte de algún punteo de por medio se me
habrá piantado, pero suena casi igual que el tema,
traté de hacer asta los punteos mas mínimos.. creo
que están todos,
Un saludos Robin (miembro de la M.I.S de V.L.A) que me
ayuda a tocar este tema de (Última Estación) y así
a todos por igual-
Acepto toda sugerencia. Los amo a todos!!!
Jaime. A. Soto:
Jimmy_kpox100pre@ / jaimevla@
Suggest correction
Give kudos to tab author, rate the tab!
1 2 3 4 5
comments
print report bad tab
guest
You may want to rate the tab now too:
select rating
Wanna post a correction for this tab? Suggest correction