Oops, an error
Loading. Please wait.

Keeping The Fate Alive tab

28 views 1 this week
no commentswrite comment
1 2 3 4 5
3 more votes to show rating
add to favorites
×
Save as Personal and add changes to this tab that will be seen only by you. Learn more ›
×
You can save this tab as Personal to edit and correct it or add notes. All changes will be seen only by you. Learn more »
launch autoscroll
font size
0
reset
how to read this tab
guitar tuner
edit
Autoscroll
slow
fast
+/-
esc
set tempo
stop
About this tab version
I'm the lead guitarist of this band. Was this info helpful? Yes No
Keeping The Fate Alive
Tuning:
C G C F A D

Guitar 1: Anjo Tabios

[Intro]
D|-------------|-------------|-------------|-------------|
A|-------------|-------------|-------------|-------------|
F|-------------|-------------|-------------|-------------|
C|-------------|-------------|-------------|-------------|
G|-----12---10-|---8h10------|-----8---7---|---7h8-------|
C|-0-0----0----|-0-----------|-0-0---0-----|-0-----------|

D|-------------|-------------|-------------|-------------|
A|-------------|-------------|-------------|-------------|
F|-------------|-------------|-------------|-------------|
C|-------------|-------------|-----10---8--|---7h8-------|
G|-----12---10-|---8h10------|-------------|-------------|
C|-0-0----0----|-0-----------|-0-0----0----|-0-----------|

D|-------------|-------------|-------------|-------------|
A|-------------|-------------|-------------|-------------|
F|---7----9----|-------------|-------------|-------------|
C|---x----x----|---SLIDE-----|-------------|-------------|
G|---5----7----|---SLIDE-----|-------------|-------------|
C|-------------|-------------|-------------|-------------|

D|-------------|-------------|-------------|-------------|
A|-------------|-------------|-------------|-------------|
F|-------------|-------------|-------------|-------------|
C|-------------|-------------|-------------|-------------|
G|-----12---10-|---8h10------|-----8---7---|---7h8-------|
C|-0-0----0----|-0-----------|-0-0---0-----|-0-----------|

D|-------------|-------------|-------------|-------------|
A|-------------|-------------|-------------|-------------|
F|-------------|-------------|-------------|-------------|
C|-------------|-------------|-----10---8--|---7h8-------|
G|-----12---10-|---8h10------|-------------|-------------|
C|-0-0----0----|-0-----------|-0-0----0----|-0-----------|

D|-------------|-------------|-------------|-------------|
A|-------------|-------------|-------------|-------------|
F|-7--7--7--7--|-9--9--9--9--|-10-10-10-10-|-12-12-12-12-|
C|-x--x--x--x--|-x--x--x--x--|-x--x--x--x--|-x--x--x--x--|
G|-5--5--5--5--|-7--7--7--7--|-8--8--8--8--|-10-10-10-10-|
C|-------------|-------------|-------------|-------------|

D|-------------------------------------------------------|
A|-------------------------------------------------------|
F|-------------------------------------------------------|
C|-------------------------------------------------------|
G|-------------------------------------------------------|
C|-0-0-0--0-0----0-0-0-0--0-0--0-0-0--0-0---0-0-0-0--0-0-|
   x x x  x x    x x x x  x x  x x x  x x   x x x x  x x

D|-------------------------------------------------------|
A|-------------------------------------------------------|
F|-------------------------------------------------------|
C|-------------------------------------------------------|
G|-------------------------------------------------------|
C|-3-P.H-------------------------------------------------|

D|-------------------------------------------------------|
A|-------------------------------------------------------|
F|-------------------------------------------------------|
C|-------------------------------------------------------|
G|-------------------------------------------------------|
C|-0-0-0--0-0----0-0-0-0--0-0--0-0-0--0-0---0-0-0-0--0-0-|
   x x x  x x    x x x x  x x  x x x  x x   x x x x  x x

D|-------------------------------------------------------|
A|-------------------------------------------------------|
F|-------------------------------------------------------|
C|---------0----------------------BREAK------------------|
G|---------0----------------------BREAK------------------|
C|-3-P.H---0----------------------BREAK------------------|

[Verse]
D|--------------------------------------------------------|
A|--------------------------------------------------------|
F|--------------------------------------------------------|
C|-----3---2-------------3---2---3h5----------------------|
G|-------------3h5----------------------------------------|
C|-0-0---0---0-------0-0---0---0--------------------------|

D|--------------------------------------------------------|
A|--------------------------------------------------------|
F|--------------------------------------------------------|
C|-----3---2-------------3---2---3h5----------------------|
G|-------------3h5----------------------------------------|
C|-0-0---0---0-------0-0---0---0--------------------------|

D|--------------------------------------------------------|
A|--------------------------------------------------------|
F|-----10---9---7h9---------10---9---9h10-----------------|
C|-8-8----8---8---------8-8----8---8----------------------|
G|--------------------------------------------------------|
C|--------------------------------------------------------|

D|--------------------------------------------------------|
A|--------------------------------------------------------|
F|-------12----10----9h10h9----9----------9h10------------|
C|-10-10----10----10--------12---12-10--------------------|
G|-------------------------------------12-----------------|
C|--------------------------------------------------------|

(Repeat Verse: Total of 2 Verse)

[Refrain]
D|--------------------------------------------------------|
A|--------------------------------------------------------|
F|-------9--------12---------9--------15------------------|
C|-0-0-0-x--0-0-0-x----0-0-0-x--0-0-0-x-------------------|
G|-0-0-0-8--0-0-0-10---0-0-0-8--0-0-0-13------------------|
C|-0-0-0----0-0-0------0-0-0----0-0-0---------------------|

[Chorus]
D|--------------------------------------------------------|
A|-13-13-13-13--8-8--10-10--6-6--8-8--10-10---------------|
F|-x--x--x--x---x-x--x--x---x-x--x-x--x--x----------------|
C|-10-10-10-10--5-5--7--7---3-3--5-5--7--7----------------|
C|--------------------------------------------------------|
C|--------------------------------------------------------|

D|--------------------------------------------------------|
A|-13-13-13-13--8-8--10-10--6-6--8-8--10-10---------------|
F|-x--x--x--x---x-x--x--x---x-x--x-x--x--x----------------|
C|-10-10-10-10--5-5--7--7---3-3--5-5--7--7----------------|
G|--------------------------------------------------------|
C|--------------------------------------------------------|

D|--------------------------------------------------------|
A|-13-13-13-13--18-18--17-17--13-13-13-13--10-10--13-13---|
F|-x--x--x--x---x--x---x--x---x--x--x--x---x--x---x--x----|
C|-10-10-10-10--15-15--14-14--10-10-10-10--7--7---10-10---|
G|--------------------------------------------------------|
C|--------------------------------------------------------|

D|--------------------------------------------------------|
A|-13-13-13-13--8-8--10-10--6-6--8-8--10-10---------------|
F|-x--x--x--x---x-x--x--x---x-x--x-x--x--x----------------|
C|-10-10-10-10--5-5--7--7---3-3--5-5--7--7----------------|
G|--------------------------------------------------------|
C|--------------------------------------------------------|

(Repeat Verse, Refrain & Chorus)

[Solo]
D|--------------------------------------------------------|
A|--------------------------------------------------------|
F|-------------------10----10-12-13b----------------------|
C|-------10----10-12----12--------------------------------|
G|-10h12----12--------------------------------------------|
C|--------------------------------------------------------|

D|-------------------10----10-13-10-----------------------|
A|-------10----10-13----13----------13-10-----------------|
F|-10h12----12----------------------------12-10-----------|
C|----------------------------------------------12-10-----|
G|--------------------------------------------------------|
C|--------------------------------------------------------|

D|-13T-10T-12T-13T-10T-12T-13T-10T-12T-13T-10T-12T--------|
A|--------------------------------------------------------|
F|--------------------------------------------------------|
C|--------------------------------------------------------|
G|--------------------------------------------------------|
C|--------------------------------------------------------|

D|-12T-8T-10T-12T-8T-10T-12T-8T-10T-12T-8T-10T------------|
A|--------------------------------------------------------|
F|--------------------------------------------------------|
C|--------------------------------------------------------|
G|--------------------------------------------------------|
C|--------------------------------------------------------|

D|-15T-12T-13T-15T-12T-13T-15T-12T-13T-15T-12T-13T--------|
A|--------------------------------------------------------|
F|--------------------------------------------------------|
C|--------------------------------------------------------|
G|--------------------------------------------------------|
C|--------------------------------------------------------|

D|-------------12----12-13-17-----------------------------|
A|-------13h15----15--------------------------------------|
F|-12h14--------------------------------------------------|
C|--------------------------------------------------------|
G|--------------------------------------------------------|
C|--------------------------------------------------------|

(Guitarist 2 Part just sustain the last solo)
D|---------------------------------------------------------|
A|---------------------------------------------------------|
F|-10-10-10-10--12-12-12-12--14-14-14-14--15-15-15-15------|
C|-x--x--x--x---x--x--x--x---x--x--x--x---x--x--x--x-------|
G|-8--8--8--8---10-10-10-10--12-12-12-12--13-13-13-13------|
C|----------------------------------------------------15/0-|

[Bridge]
D|--------------------------------------------------------------------|
A|--------------------------------------------------------------------|
F|--------------------------------------------------------------------|
C|--------------------------------------------------------------------|
G|-----8---7---7h8------8---7---7h8------8---7---7h8------8---7---7h8-|
C|-0-0---0---0------0-0---0---0------0-0---0---0------0-0---0---0-----|

D|-------------------------------------------------------|
A|-------------------------------------------------------|
F|-------------------------------------------------------|
C|-------------------------------------------------------|
G|-----8---7---7h8------10---8---7h8---------------------|
C|-8-8---8---8------8-8----8---8-------------------------|

D|-------------------------------------------------------|
A|-------------------------------------------------------|
F|-10-10-10-10--12-12-12-12--10-10-10-10--9-9-9-9--------|
C|-x--x--x--x---x--x--x--x---x--x--x--x---x-x-x-x--------|
G|-8--8--8--8---10-10-10-10--8--8--8--8---7-7-7-7--------|
C|-------------------------------------------------------|

D|---------------------------------------------------------------------|
A|---------------------------------------------------------------------|
F|---------------------------------------------------------------------|
C|---------------------------------------------------------------------|
G|-----12--10--10h12----12--10--10h12----12-10---10h12---12---10-10h12-|
C|-0-0---0---0------0-0---0---0------0-0---0---0------0-0---0---0------|

D|-------------------------------------------------------|
A|-------------------------------------------------------|
F|-------------------------------------------------------|
C|-------------------------------------------------------|
G|-----12--10--10h12----13---12---10h12------------------|
C|-8-8---8---8------8-8----8---8-------------------------|

D|-------------------------------------------------------|
A|-------------------------------------------------------|
F|-10-10-10-10--12-12-12-12--14-14-14-14--15-15-15-15----|
C|-x--x--x--x---x--x--x--x---x--x--x--x---x--x--x--x-----|
G|-8--8--8--8---10-10-10-10--12-12-12-12--13-13-13-13----|
C|-------------------------------------------------------|

[Chorus]
D|-------------------------------------------------------|
A|-13-13-13-13--8-8--10-10--6-6--8-8--10-10--------------|
F|-x--x--x--x---x-x--x--x---x-x--x-x--x--x---------------|
C|-10-10-10-10--5-5--7--7---3-3--5-5--7--7---------------|
G|-------------------------------------------------------|
C|-------------------------------------------------------|

D|-------------------------------------------------------|
A|-13-13-13-13--8-8--10-10--6-6--8-8--10-10--------------|
F|-x--x--x--x---x-x--x--x---x-x--x-x--x--x---------------|
C|-10-10-10-10--5-5--7--7---3-3--5-5--7--7---------------|
G|-------------------------------------------------------|
C|-------------------------------------------------------|

D|-------------------------------------------------------|
A|-13-13-13-13--18-18--17-17--13-13-13-13--10-10--13-13--|
F|-x--x--x--x---x--x---x--x---x--x--x--x---x--x---x--x---|
C|-10-10-10-10--15-15--14-14--10-10-10-10--7--7---10-10--|
G|-------------------------------------------------------|
C|-------------------------------------------------------|

D|-------------------------------------------------------|
A|-13-13-13-13--8-8--10-10--6-6--8-8--10-10--------------|
F|-x--x--x--x---x-x--x--x---x-x--x-x--x--x---------------|
C|-10-10-10-10--5-5--7--7---3-3--5-5--7--7---------------|
G|-------------------------------------------------------|
C|-------------------------------------------------------|

[Outro]
D|-------------------------------------------------------|
A|-------------------------------------------------------|
F|-14--15-14--15-14--10-7--------------------------------|
C|-------------------------------------------------------|
G|-------------------------------------------------------|
C|-------------------------------------------------------|

Guitar 2: Kenneth Justine Abrian
[Intro]
D|-------------------------------------------------------|
A|-------------------------------------------------------|
F|-------------------------------------------------------|
C|-0--0--8--10-------------------------------------------|
G|-0--0--8--10-------------------------------------------|
C|-0--0--8--10-------------------------------------------|

D|-------------|-------------|-------------|-------------|
A|-------------|-------------|-------------|-------------|
F|-------------|-------------|-------------|-------------|
C|-------------|-------------|-------------|-------------|
G|------8---7--|---5h7-------|-----5---3---|---3h5-------|
C|-0-0----0----|-0-----------|-0-0---0-----|-0-----------|

D|-------------|-------------|-------------|-------------|
A|-------------|-------------|-------------|-------------|
F|-------------|-------------|-------------|-------------|
C|-------------|-------------|-----5---7---|---3h5-------|
G|-----8----7--|---5h7-------|-------------|-------------|
C|-0-0----0----|-0-----------|-0-0----0----|-0-----------|

D|-------------------------------------------------------|
A|-------------------------------------------------------|
F|-------------------------------------------------------|
C|-------------------------------------------------------|
G|-------------------------------------------------------|
C|-0-0-0--0-0----0-0-0-0--0-0--0-0-0--0-0---0-0-0-0--0-0-|
   x x x  x x    x x x x  x x  x x x  x x   x x x x  x x

D|-------------------------------------------------------|
A|-------------------------------------------------------|
F|-------------------------------------------------------|
C|-------------------------------------------------------|
G|-------------------------------------------------------|
C|-3-P.H-------------------------------------------------|

D|-------------------------------------------------------|
A|-------------------------------------------------------|
F|-------------------------------------------------------|
C|-------------------------------------------------------|
G|-------------------------------------------------------|
C|-0-0-0--0-0----0-0-0-0--0-0--0-0-0--0-0---0-0-0-0--0-0-|
   x x x  x x    x x x x  x x  x x x  x x   x x x x  x x

D|-------------------------------------------------------|
A|-------------------------------------------------------|
F|-------------------------------------------------------|
C|---------0----------------------BREAK------------------|
G|---------0----------------------BREAK------------------|
C|-3-P.H---0----------------------BREAK------------------|

[Verse]
D|-------------------------------------------------------|
A|-------------------------------------------------------|
F|-------------------------------------------------------|
C|-----7---5-------------7---5---7h8---------------------|
G|-------------7h8---------------------------------------|
C|-0-0---0---0-------0-0---0---0-------------------------|

D|-------------------------------------------------------|
A|-------------------------------------------------------|
F|-------------------------------------------------------|
C|-----7---5-------------7---5---7h8---------------------|
G|-------------7h8---------------------------------------|
C|-0-0---0---0-------0-0---0---0-------------------------|

D|-------------------------------------------------------|
A|-------------------------------------------------------|
F|-------------------------------------------------------|
C|------------------10------------10h12------------------|
G|-----8-----10------------10----------------------------|
C|-8-8---8-8----8-8----8-8----8-8------------------------|
   x x   x x    x x    x x    x x

D|-------------------------------------------------------|
A|-------------------------------------------------------|
F|-------------------------------------------------------|
C|-------------------------------------10h12-------------|
G|-------10-------12-------13-------12-------------------|
C|-10-10----10-10----10-10----10-10----------------------|
   x  x     x  x     x  x     x  x

(Repeat Verse: Total of 2 Verse)

[Refrain]
D|-------------------------------------------------------|
A|-------------------------------------------------------|
F|-------7--------9---------7--------9-------------------|
C|-0-0-0-x--0-0-0-x---0-0-0-x--0-0-0-x-------------------|
G|-0-0-0-5--0-0-0-7---0-0-0-5--0-0-0-7-------------------|
C|-0-0-0----0-0-0-----0-0-0----0-0-0---------------------|

[Chorus]
D|-------------------------------------------------------|
A|-------------------------------------------------------|
F|-------------------------------------------------------|
C|-10-10-10-10-10-10-10-10-0-0-0-0-5-5-5-5---------------| x4
G|-8--8--8--8--10-10-10-10-0-0-0-0-3-3-3-3---------------|
C|-8--8--8--8--10-10-10-10-0-0-0-0-3-3-3-3---------------|

(Repeat Verse, Refrain & Chorus)

[Solo]
D|-------------------------------------------------------|
A|-------------------------------------------------------|
F|-------------------------------------------------------|
C|-10-10-10-10-10-10-10-10-0-0-0-0-5-5-5-5---------------| x2
G|-8--8--8--8--10-10-10-10-0-0-0-0-3-3-3-3---------------|
C|-8--8--8--8--10-10-10-10-0-0-0-0-3-3-3-3---------------|

D|-------------------------------------------------------|
A|-------------------------------------------------------|
F|-7-7-7-7--9-9-9-9--10-10-10-10-12-12-12-12-------------|
C|-x-x-x-x--x-x-x-x--x--x--x--x--x--x--x--x--------------| x2
G|-5-5-5-5--7-7-7-7--8--8--8--8--10-10-10-10-------------|
C|-------------------------------------------------------|

[Bridge]
D|--------------------------------------------------------------------|
A|--------------------------------------------------------------------|
F|--------------------------------------------------------------------|
C|--------------------------------------------------------------------|
G|-----8---7---7h8------8---7---7h8------8---7---7h8------8---7---7h8-|
C|-0-0---0---0------0-0---0---0------0-0---0---0------0-0---0---0-----|

D|-------------------------------------------------------|
A|-------------------------------------------------------|
F|-------------------------------------------------------|
C|-------------------------------------------------------|
G|-----8---7---7h8------10---8---7h8---------------------|
C|-8-8---8---8------8-8----8---8-------------------------|

D|-------------------------------------------------------|
A|-------------------------------------------------------|
F|-------------------------------------------------------|
C|-10-10-10-x-10-10-10-x-10-10-10-x-10-10-10-------------|
G|-10-10-10-x-10-10-10-x-10-10-10-x-10-10-10-------------|
C|-10-10-10-x-10-10-10-x-10-10-10-x-10-10-10-------------|

D|--------------------------------------------------------------------|
A|--------------------------------------------------------------------|
F|--------------------------------------------------------------------|
C|--------------------------------------------------------------------|
G|-----8---7---7h8------8---7---7h8------8---7---7h8------8---7---7h8-|
C|-0-0---0---0------0-0---0---0------0-0---0---0------0-0---0---0-----|

D|-------------------------------------------------------|
A|-------------------------------------------------------|
F|-------------------------------------------------------|
C|-------------------------------------------------------|
G|-----8---7---7h8------10---8---7h8---------------------|
C|-8-8---8---8------8-8----8---8-------------------------|

D|-------------------------------------------------------|
A|-------------------------------------------------------|
F|-------------------------------------------------------|
C|-10-10-10-x-10-10-10-x-10-10-10-x-10-10-10-------------|
G|-10-10-10-x-10-10-10-x-10-10-10-x-10-10-10-------------|
C|-10-10-10-x-10-10-10-x-10-10-10-x-10-10-10-------------|

[Chorus]
D|-------------------------------------------------------|
A|-------------------------------------------------------|
F|-------------------------------------------------------|
C|-10-10-10-10-10-10-10-10-0-0-0-0-5-5-5-5---------------| x4
G|-8--8--8--8--10-10-10-10-0-0-0-0-3-3-3-3---------------|
C|-8--8--8--8--10-10-10-10-0-0-0-0-3-3-3-3---------------|

[Outro]
D|-------------------------------------------------------|
A|-------------------------------------------------------|
F|-------------------------------------------------------|
C|-------------------------------------------------------|
G|-------------------------------------------------------|
C|-0-0-0--0-0----0-0-0-0--0-0--0-0-0--0-0---0-0-0-0--0-0-|
   x x x  x x    x x x x  x x  x x x  x x   x x x x  x x

D|-------------------------------------------------------|
A|-------------------------------------------------------|
F|-------------------------------------------------------|
C|-------------------------------------------------------|
G|-------------------------------------------------------|
C|-3-P.H-------------------------------------------------|

D|-------------------------------------------------------|
A|-------------------------------------------------------|
F|-------------------------------------------------------|
C|-------------------------------------------------------|
G|-------------------------------------------------------|
C|-0-0-0--0-0----0-0-0-0--0-0--0-0-0--0-0---0-0-0-0--0-0-|
   x x x  x x    x x x x  x x  x x x  x x   x x x x  x x

D|-------------------------------------------------------|
A|-------------------------------------------------------|
F|-------------------------------------------------------|
C|---------0---------------------------------------------|
G|---------0---------------------------------------------|
C|-3-P.H---0---------------------------------------------|

************************************

| h  Hammer-on
| x  Dead note
| ~  Vibrato
| b  Bend
| /  Slide up

************************************

            
            
Suggest correction
Creating personal tab
Creating personal tab
You can edit any tab online and save it as your Personal.

You can edit, replace or remove any tab part or add personal notes – all changes will be seen only by you.

Personal tabs can be accessed anytime from any device, even offline.
Learn more »
Give kudos to tab author, rate the tab!
1 2 3 4 5
comments
print report bad tab
guest
You may want to rate the tab now too:
select rating
Wanna post a correction for this tab? Suggest correction