Oops, an error
Loading. Please wait.

El Oi! Es Violencia Tab

66 views 1 this week
no commentswrite comment
1 2 3 4 5
3 more votes to show rating
add to favorites
launch autoscroll
font size
0
reset
how to read this tab
guitar tuner
×
Best way to learn
"El Oi! Es Violencia"
Autoscroll
slow
fast
+/-
esc
set tempo
stop
WENAS

AKI DEJO OTRA TABLATURA PARA USTEDES...XD

WENO A VER:

empieza asi

6:--1-1-------4-4-6-6-4-1
5:--3-3-4-4-3-6-6-8-8-6-3
4:------6-6-5------------
3:-----------------------


DESPUES DICE SKINHEAD POWER Y CONTINUA HACIENDO:

6:--1-1-------4-4-6-6-4-1
5:--3-3-4-4-3-6-6-8-8-6-3
4:------6-6-5------------
3:-----------------------

ESOS SON LOS ACORDES DEL PRINCIPIO Y LUEGO EL MINI SOLO ES...

6:-------------------------------------------------------------
5:-------4-------3-------4-------3------4------3---------------
4:--3-1-0--3-1-0---3-1-0---3-1-0---3-1-0--3-1-0---3-1-0-3-5-6-3
3:-------------------------------------------------------------


6:---------------------------------------------
5:---------------------------------------------
4:----------3-3-------3-3--------3-3--------3-3
3:--5-3-1-0----5-3-1-0----5-3-1-0----5-3-1-0---

6:---------------------------------
5:---------------------------------
4:----------3-3--------3-3---------
3:--5-3-1-0----5-3-1-0----5-3-1-s5-
CUANDO YA EMPIEZA LA LETRA ES LO MISMO QUE EL PRINCIPIO


6:--1-1-1-1-1-1-1---------------4-4-4-4-4-4-4-6-6-6-6-4
5:--3-3-3-3-3-3-3-4-4-4-4-4-3-3-6-6-6-6-6-6-6-8-8-8-8-6
4:----------------6-6-6-6-6-5-5------------------------


ASI CASI TODO EL RATO EXCEPTO KUAND KANTA EL ESTRIBILLO

(OI!OI!OI! EL OI! ES VIOLENCIA...) QUE HACE:

6:--1-1-1-1-3-4-----------6-6-
5:--3-3-3-3-5-6-4-4-4-4-3-8-8-
4:--------------6-6-6-6-5-----


Y YA ESTA...

ESTA ES LA TAB...

PARA EL BAJO ES:

4:1-1-1-1-1-1-1---------------4-4-4-4-4-4-4-6-6-6-6-6-4-4-
3:--------------4-4-4-4-4-3-3-----------------------------

ASI TODO EL RATO MENOS EL ESTRIBILLO QUE ES:

4:1-1-1-1-1-3-4-4-4-4-4-4---------6-6-6-6-6-6--6
3:-----------------------4-4-4-4-3-----------3--


WENO SI QUEREIS ALGUNA CANCION MAS PEDIDLA....

ARRIBA OS VIENE MI E-MAIL

SALUD Y OI!
Suggest correction
Give kudos to tab author, rate the tab!
1 2 3 4 5
comments
print report bad tab
guest
You may want to rate the tab now too:
select rating
Wanna post a correction for this tab? Suggest correction