Oops, an error
Loading. Please wait.

Solos Contra Todos Tab

72 views 1 this week
1 commentread comment
1 2 3 4 5
3 more votes to show rating
add to favorites
launch autoscroll
font size
0
reset
how to read this tab
guitar tuner
Autoscroll
slow
fast
+/-
esc
set tempo
stop
Help us to improve Ultimate-Guitar.com Take our survey!
×
        INTRO: G-A E-F F-C C-D C-A


 e|----------------------------------------------|
 B|----------------------------------------------|
 G|----------------------------------------------|
 D|-----------------3---3-2-0--------------------|
 A|------3--------3-----------3-5--5-3-5---------|
 E|--3-5---5--3-5------------------------5-------|

          X2

 Punteo va con estos acordes: A - F - C - D - A

 e|----------------------------------------------|
 B|-------------------8-8------------------------|
 G|-----9-9-10-10-9-9-----10-10-9-9-10-9---------|
 D|-7-7----------------------------------7-------|
 A|----------------------------------------------|
 E|----------------------------------------------|


     Estrofa:

  C         F        A
 Toda Tu Vida Has Sentido que no eras uno más

  C         F            A
 Odiando Siempre lo que representa esta humanidad

  C         F            A
 Tus propias leyes son las que van rigiendo tu vida

  C         F            A
 Sientes Repulsa por todo lo Establecido


       ..::  A - F X2  ::..


   C           F         A
 Sociega al Policia y deja todo el Punk a tu Control

   C           F         A
 Nunca Podran Cambiar lo que hay dentro de mi corazon

   C           F         A
 Fuertes en la batalla, en el combate contra cerdos

   C           F            A
 Nunca Podran Borrar lo que hay escrito en el recuerdo


       ..::  A - C-F - C - D - A::..  (Hagan el FA en la 5ª Cuerda,
                                        asi Suena Mejor)

  CORO:

   A                 F (5ª)
 El Camino Marcado Nunca terminamos

  C           D          A
 Unidos, Unidos Contra esta puta escoria

   A                 F (5ª)
 Pocos pero no Cobardes !NO! Siempre continuaremos

  C           D          A
 Luchando, Luchando Solos Contra Todos !!

       ..::  A - F X2  ::..


   Despues viene Otra Estrofa Con los Mismos
  Acordes de la Primera y Luego el Coro Nuevamente........
Suggest correction
Give kudos to tab author, rate the tab!
1 2 3 4 5
comments
print report bad tab
1 comment total.
0 reply
rau_xd_69 10 Sep 21, 2016 11:53 AM

estgo esta mas mal echo que la ostia

guest
You may want to rate the tab now too:
select rating
Wanna post a correction for this tab? Suggest correction