Oops, an error
Loading. Please wait.

Zombies tab

version 1
version 1

Whole song

Interactive

81 views 1 this week
no commentswrite comment
1 2 3 4 5
3 more votes to show rating
add to favorites
×
Save as Personal and add changes to this tab that will be seen only by you. Learn more ›
×
You can save this tab as Personal to edit and correct it or add notes. All changes will be seen only by you. Learn more »
launch autoscroll
font size
0
reset
how to read this tab
guitar tuner
edit
Autoscroll
slow
fast
+/-
esc
set tempo
stop
Author
Difficulty
                        Zombies!! (Coming Out Tonight)                          


                                                                  Ultra Saturday
Rhythm Guitar (Lead Guitar at the bottom)



E||-------|-------|-------|-------|-------|-------|-------|-------|-------|
B||-------|-------|-------|-------|-------|-------|-------|-------|-------|
G||-------|-------|-------|-------|-------|-------|-------|-------|-------|
D||-------|-------|-------|-------|-------|-------|-------|-------|-------|
A||-------|-------|-------|-------|-------|-------|-------|-------|-------|
E||-------|-------|-------|-------|-------|-------|-------|-------|-------|







INTRO
          E  E  E  E  E  E  E  E     E  E  E  E  E  E  E  E   
-------|--------------------------|--------------------------|
-------|--------------------------|--------------------------|
-------|--------------5-----------|--------------5-----------|
-------|-----5-----5-----5-----5--|-----5-----5-----5-----5--|
-------|--3-----3-----------3-----|--3-----3-----------3-----|
-------|--------------------------|--------------------------|


  E  E  E  E  E  E  E  E     E  E  E  E  E  E  E  E   
--------------------------|--------------------------|
--------------------------|--------------------------|
--------------5-----------|--------------5-----------|
-----5-----5-----5-----5--|-----5-----5-----5-----5--|
--------------------------|--------------------------|
--3-----3-----------3-----|--3-----3-----------3-----|


  E  E  E  E  E  E  E  E     E  E  E  E  E  E  E  E   
--------------------------|--------------------------|
--------------------------|--------------------------|
--------------5-----------|--------------5-----------|
-----5-----5-----5-----5--|-----5-----5-----5-----5--|
--------------------------|--------------------------|
--5-----5-----------5-----|--5-----5-----------5-----|


  E  E  E  E  E  E  E  E     E  E  E  E  E  E  E  E   
--------------------------|--------------------------|
--------------------------|--------------------------|
--------------------------|--------------------------|
--------------3-----------|--------------3-----------|
-----3-----3-----3-----3--|-----3-----3-----3-----3--|
--1-----1-----------1-----|--1-----1-----------1-----|


  E  E  E  E  E  E  E  E     E  E  E  E  E  E  E  E   
--------------------------|--------------------------|
--------------------------|--------------------------|
--------------5-----------|--------------5-----------|
-----5-----5-----5-----5--|-----5-----5-----5-----5--|
--3-----3-----------3-----|--3-----3-----------3-----|
--------------------------|--------------------------|


  E  E  E  E  E  E  E  E     E  E  E  E  E  E  E  E   
--------------------------|--------------------------|
--------------------------|--------------------------|
--------------5-----------|--------------5-----------|
-----5-----5-----5-----5--|-----5-----5-----5-----5--|
--------------------------|--------------------------|
--3-----3-----------3-----|--3-----3-----------3-----|


  E  E  E  E  E  E  E  E     E  E  E  E  E  E  E  E   
--------------------------|--------------------------|
--------------------------|--------------------------|
--------------5-----------|--------------5-----------|
-----5-----5-----5-----5--|-----5-----5-----5-----5--|
--------------------------|--------------------------|
--5-----5-----------5-----|--5-----5-----------5-----|







Intro Jam
  E  E  E  E  E  E  E  E       Q.      Q.     Q       Q    E  E  E  E  E  E   
--------------------------|------------------------|-------------------------|
--------------------------|------------------------|-------------------------|
--------------------------|--/12------10------9----|--5----5--5--5--5--5--5--|
--------------------3--3--|----x-------x------x----|--5----5--5--5--5--5--5--|
--------------3--3--3--3--|--/10-------8------7----|--3----3--3--3--3--3--3--|
--1--1--1--1--1--1--1--1--|------------------------|-------------------------|


  Q    E  E  E  E  E  E     Q    E  E  E  E  E  E     Q    E  E  E  E  E  E   
-------------------------|-------------------------|-------------------------|
-------------------------|-------------------------|-------------------------|
-------------------------|-------------------------|-------------------------|
--5----5--5--5--5--5--5--|--7----7--7--7--7--7--7--|--3----3--3--3--3--3--3--|
--5----5--5--5--5--5--5--|--7----7--7--7--7--7--7--|--3----3--3--3--3--3--3--|
--3----3--3--3--3--3--3--|--5----5--5--5--5--5--5--|--1----1--1--1--1--1--1--|


  Q    E  E  E  E  E  E     Q    E  E  E  E  E  E     Q    E  E  E  E  E  E   
-------------------------|-------------------------|-------------------------|
-------------------------|-------------------------|-------------------------|
--5----5--5--5--5--5--5--|-------------------------|-------------------------|
--5----5--5--5--5--5--5--|--5----5--5--5--5--5--5--|--7----7--7--7--7--7--7--|
--3----3--3--3--3--3--3--|--5----5--5--5--5--5--5--|--7----7--7--7--7--7--7--|
-------------------------|--3----3--3--3--3--3--3--|--5----5--5--5--5--5--5--|


  Q    E  E  E  E  E  E     Q    E  E  E  E  E  E     Q    E  E  E  E  E  E   
-------------------------|-------------------------|-------------------------|
-------------------------|-------------------------|-------------------------|
-------------------------|--5----5--5--5--5--5--5--|-------------------------|
--3----3--3--5--5--5--5--|--5----5--5--5--5--5--5--|--5----5--5--5--5--5--5--|
--3----3--3--5--5--5--5--|--3----3--3--3--3--3--3--|--5----5--5--5--5--5--5--|
--1----1--1--3--3--3--3--|-------------------------|--3----3--3--3--3--3--3--|


  Q    E  E  E  E  E  E     Q    E  E  E  E  E  E     Q    E  E  E  E  E  E   
-------------------------|-------------------------|-------------------------|
-------------------------|-------------------------|-------------------------|
-------------------------|-------------------------|--5----5--5--5--5--5--5--|
--7----7--7--7--7--7--7--|--3----3--3--3--3--3--3--|--5----5--5--5--5--5--5--|
--7----7--7--7--7--7--7--|--3----3--3--3--3--3--3--|--3----3--3--3--3--3--3--|
--5----5--5--5--5--5--5--|--1----1--1--1--1--1--1--|-------------------------|


  Q    E  E  E  E  E  E     Q    E  E  E  E  E  E     Q    E  E  E  E  E  E   
-------------------------|-------------------------|-------------------------|
-------------------------|-------------------------|-------------------------|
-------------------------|-------------------------|-------------------------|
--5----5--5--5--5--5--5--|--7----7--7--7--7--7--7--|--3----3--3--3--3--3--3--|
--5----5--5--5--5--5--5--|--7----7--7--7--7--7--7--|--3----3--3--3--3--3--3--|
--3----3--3--3--3--3--3--|--5----5--5--5--5--5--5--|--1----1--1--1--1--1--1--|


  Q    E  E  E  E  E  E     Q    E  E  E  E  E  E     Q    E  E  E  E  E  E   
-------------------------|-------------------------|-------------------------|
-------------------------|-------------------------|-------------------------|
--5----5--5--5--5--5--5--|-------------------------|-------------------------|
--5----5--5--5--5--5--5--|--5----5--5--5--5--5--5--|--7----7--7--7--7--7--7--|
--3----3--3--3--3--3--3--|--5----5--5--5--5--5--5--|--7----7--7--7--7--7--7--|
-------------------------|--3----3--3--3--3--3--3--|--5----5--5--5--5--5--5--|


  Q    E  E  E  E  E  E     Q    E  E  E  E  E  E     Q    E  E  E  E  E  E   
-------------------------|-------------------------|-------------------------|
-------------------------|-------------------------|-------------------------|
-------------------------|--5----5--5--5--5--5--5--|-------------------------|
--3----3--3--3--3--3--3--|--5----5--5--5--5--5--5--|--5----5--5--5--5--5--5--|
--3----3--3--3--3--3--3--|--3----3--3--3--3--3--3--|--5----5--5--5--5--5--5--|
--1----1--1--1--1--1--1--|-------------------------|--3----3--3--3--3--3--3--|


  Q    E  E  E  E  E  E     Q    E  E  E  E  E  E   
-------------------------|-------------------------|
-------------------------|-------------------------|
-------------------------|-------------------------|
--7----7--7--7--7--7--7--|--3----3--3--5--5--5--5--|
--7----7--7--7--7--7--7--|--3----3--3--5--5--5--5--|
--5----5--5--5--5--5--5--|--1----1--1--3--3--3--3--|






Verse 1
  PM PM PM PM PM PM PM PM PM    PM PM PM PM PM PM PM PM PM  
  E  E  E  E  E  E  E  S  S     E  E  E  E  E  E  E  S  S   
-----------------------------|-----------------------------|
-----------------------------|-----------------------------|
-----------------------------|-----------------------------|
--5--5--5--5--5--5--5--5--5--|-----------------------------|
--3--3--3--3--3--3--3--3--3--|--5--5--5--5--5--5--5--5--5--|
-----------------------------|--3--3--3--3--3--3--3--3--3--|


  PM PM PM PM PM PM PM PM PM    PM PM PM PM PM PM PM PM PM  
  E  E  E  E  E  E  E  S  S     E  E  E  E  E  E  E  S  S   
-----------------------------|-----------------------------|
-----------------------------|-----------------------------|
-----------------------------|-----------------------------|
-----------------------------|-----------------------------|
--7--7--7--7--7--7--7--7--7--|--3--3--3--3--3--3--3--3--3--|
--5--5--5--5--5--5--5--5--5--|--1--1--1--1--1--1--1--1--1--|


  PM PM PM PM PM PM PM PM PM    PM PM PM PM PM PM PM PM PM  
  E  E  E  E  E  E  E  S  S     E  E  E  E  E  E  E  S  S   
-----------------------------|-----------------------------|
-----------------------------|-----------------------------|
-----------------------------|-----------------------------|
--5--5--5--5--5--5--5--5--5--|-----------------------------|
--3--3--3--3--3--3--3--3--3--|--5--5--5--5--5--5--5--5--5--|
-----------------------------|--3--3--3--3--3--3--3--3--3--|


  PM PM PM PM PM PM PM PM PM    PM PM PM PM PM PM PM PM PM  
  E  E  E  E  E  E  E  S  S     E  E  E  E  E  E  E  S  S   
-----------------------------|-----------------------------|
-----------------------------|-----------------------------|
-----------------------------|-----------------------------|
-----------------------------|-----------------------------|
--7--7--7--7--7--7--7--7--7--|--3--3--3--3--3--3--3--3--3--|
--5--5--5--5--5--5--5--5--5--|--1--1--1--1--1--1--1--1--1--|


  PM PM PM PM PM PM PM PM PM    PM PM PM PM PM PM PM PM PM  
  E  E  E  E  E  E  E  S  S     E  E  E  E  E  E  E  S  S   
-----------------------------|-----------------------------|
-----------------------------|-----------------------------|
-----------------------------|-----------------------------|
--5--5--5--5--5--5--5--5--5--|-----------------------------|
--3--3--3--3--3--3--3--3--3--|--5--5--5--5--5--5--5--5--5--|
-----------------------------|--3--3--3--3--3--3--3--3--3--|


  PM PM PM PM PM PM PM PM PM    PM PM PM PM PM PM PM PM PM  
  E  E  E  E  E  E  E  S  S     E  E  E  E  E  E  E  S  S   
-----------------------------|-----------------------------|
-----------------------------|-----------------------------|
-----------------------------|-----------------------------|
-----------------------------|-----------------------------|
--7--7--7--7--7--7--7--7--7--|--3--3--3--3--3--3--3--3--3--|
--5--5--5--5--5--5--5--5--5--|--1--1--1--1--1--1--1--1--1--|


  PM PM PM PM PM PM PM PM PM    PM PM PM PM PM PM PM PM PM  
  E  E  E  E  E  E  E  S  S     E  E  E  E  E  E  E  S  S   
-----------------------------|-----------------------------|
-----------------------------|-----------------------------|
-----------------------------|-----------------------------|
--5--5--5--5--5--5--5--5--5--|-----------------------------|
--3--3--3--3--3--3--3--3--3--|--5--5--5--5--5--5--5--5--5--|
-----------------------------|--3--3--3--3--3--3--3--3--3--|


  PM PM PM PM PM PM PM PM PM                             
  E  E  E  E  E  E  E  S  S     E  E  E  E  E  E  E  E   
-----------------------------|--------------------------|
-----------------------------|--------------------------|
-----------------------------|--------------------------|
-----------------------------|--------------5--5--5--5--|
--7--7--7--7--7--7--7--7--7--|--3--3--3--3--5--5--5--5--|
--5--5--5--5--5--5--5--5--5--|--1--1--1--1--3--3--3--3--|






Chorus 1
  Q    E  E  E  E  E  E     Q    E  E  E  E  E  E     Q    E  E  E  E  E  E   
-------------------------|-------------------------|-------------------------|
-------------------------|-------------------------|-------------------------|
--5----5--5--5--5--5--5--|-------------------------|-------------------------|
--5----5--5--5--5--5--5--|--5----5--5--5--5--5--5--|--7----7--7--7--7--7--7--|
--3----3--3--3--3--3--3--|--5----5--5--5--5--5--5--|--7----7--7--7--7--7--7--|
-------------------------|--3----3--3--3--3--3--3--|--5----5--5--5--5--5--5--|


  Q    E  E  E  E  E  E     Q    E  E  E  E  E  E     Q    E  E  E  E  E  E   
-------------------------|-------------------------|-------------------------|
-------------------------|-------------------------|-------------------------|
-------------------------|--5----5--5--5--5--5--5--|-------------------------|
--3----3--3--3--3--3--3--|--5----5--5--5--5--5--5--|--5----5--5--5--5--5--5--|
--3----3--3--3--3--3--3--|--3----3--3--3--3--3--3--|--5----5--5--5--5--5--5--|
--1----1--1--1--1--1--1--|-------------------------|--3----3--3--3--3--3--3--|


  Q    E  E  E  E  E  E     Q    E  E  E  E  E  E     Q    E  E  E  E  E  E   
-------------------------|-------------------------|-------------------------|
-------------------------|-------------------------|-------------------------|
-------------------------|-------------------------|--5----5--5--5--5--5--5--|
--7----7--7--7--7--7--7--|--3----3--3--3--3--3--3--|--5----5--5--5--5--5--5--|
--7----7--7--7--7--7--7--|--3----3--3--3--3--3--3--|--3----3--3--3--3--3--3--|
--5----5--5--5--5--5--5--|--1----1--1--1--1--1--1--|-------------------------|


  Q    E  E  E  E  E  E     Q    E  E  E  E  E  E     Q    E  E  E  E  E  E   
-------------------------|-------------------------|-------------------------|
-------------------------|-------------------------|-------------------------|
-------------------------|-------------------------|-------------------------|
--5----5--5--5--5--5--5--|--7----7--7--7--7--7--7--|--3----3--3--3--3--3--3--|
--5----5--5--5--5--5--5--|--7----7--7--7--7--7--7--|--3----3--3--3--3--3--3--|
--3----3--3--3--3--3--3--|--5----5--5--5--5--5--5--|--1----1--1--1--1--1--1--|


  Q    E  E  E  E  E  E     Q    E  E  E  E  E  E     Q    E  E  E  E  E  E   
-------------------------|-------------------------|-------------------------|
-------------------------|-------------------------|-------------------------|
--5----5--5--5--5--5--5--|-------------------------|-------------------------|
--5----5--5--5--5--5--5--|--5----5--5--5--5--5--5--|--7----7--7--7--7--7--7--|
--3----3--3--3--3--3--3--|--5----5--5--5--5--5--5--|--7----7--7--7--7--7--7--|
-------------------------|--3----3--3--3--3--3--3--|--5----5--5--5--5--5--5--|






Verse 2
  Q    E  E  E  E  E  E     Q    E  E  E  E  E  E     Q    E  E  E  E  E  E   
-------------------------|-------------------------|-------------------------|
-------------------------|-------------------------|-------------------------|
-------------------------|-------------------------|-------------------------|
--3----3--3--5--5--5--5--|--5----x--x--x--x--x--0--|-------------------------|
--3----3--3--5--5--5--5--|--3----x--x--x--x--x--0--|--5----x--x--x--x--x--0--|
--1----1--1--3--3--3--3--|-------------------------|--3----x--x--x--x--x--0--|


  Q    E  E  E  E  E  E     Q    E  E  E  E  E  E     Q    E  E  E  E  E  E   
-------------------------|-------------------------|-------------------------|
-------------------------|-------------------------|-------------------------|
-------------------------|-------------------------|-------------------------|
-------------------------|----------------------0--|--5----x--x--x--x--x--0--|
--7----x--x--x--x--x--0--|--3----x--x--5--5--x--0--|--3----x--x--x--x--x--0--|
--5----x--x--x--x--x--0--|--1----x--x--3--3--x--0--|-------------------------|


  Q    E  E  E  E  E  E     Q    E  E  E  E  E  E     Q    E  E  E  E  E  E   
-------------------------|-------------------------|-------------------------|
-------------------------|-------------------------|-------------------------|
-------------------------|-------------------------|-------------------------|
-------------------------|-------------------------|-------------------------|
--5----x--x--x--x--x--0--|--7----x--x--x--x--x--0--|--3----x--3--5--5--5--0--|
--3----x--x--x--x--x--0--|--5----x--x--x--x--x--0--|--1----1--x--3--3--x--0--|


  PM PM PM PM PM PM PM PM PM    PM PM PM PM PM PM PM PM PM  
  E  E  E  E  E  E  E  S  S     E  E  E  E  E  E  E  S  S   
-----------------------------|-----------------------------|
-----------------------------|-----------------------------|
-----------------------------|-----------------------------|
--5--5--5--5--5--5--5--5--5--|-----------------------------|
--3--3--3--3--3--3--3--3--3--|--5--5--5--5--5--5--5--5--5--|
-----------------------------|--3--3--3--3--3--3--3--3--3--|


  PM PM PM PM PM PM PM PM PM    PM PM PM PM PM PM PM PM PM  
  E  E  E  E  E  E  E  S  S     E  E  E  E  E  E  E  S  S   
-----------------------------|-----------------------------|
-----------------------------|-----------------------------|
-----------------------------|-----------------------------|
-----------------------------|-----------------------------|
--7--7--7--7--7--7--7--7--7--|--3--3--3--3--3--3--3--3--3--|
--5--5--5--5--5--5--5--5--5--|--1--1--1--1--1--1--1--1--1--|


  PM PM PM PM PM PM PM PM PM    PM PM PM PM PM PM PM PM PM  
  E  E  E  E  E  E  E  S  S     E  E  E  E  E  E  E  S  S   
-----------------------------|-----------------------------|
-----------------------------|-----------------------------|
-----------------------------|-----------------------------|
--5--5--5--5--5--5--5--5--5--|-----------------------------|
--3--3--3--3--3--3--3--3--3--|--5--5--5--5--5--5--5--5--5--|
-----------------------------|--3--3--3--3--3--3--3--3--3--|


  PM PM PM PM PM PM PM PM PM                             
  E  E  E  E  E  E  E  S  S     E  E  E  E  E  E  E  E   
-----------------------------|--------------------------|
-----------------------------|--------------------------|
-----------------------------|--------------------------|
-----------------------------|--------------5--5--5--5--|
--7--7--7--7--7--7--7--7--7--|--3--3--3--3--5--5--5--5--|
--5--5--5--5--5--5--5--5--5--|--1--1--1--1--3--3--3--3--|






Chorus 2
  Q    E  E  E  E  E  E     Q    E  E  E  E  E  E     Q    E  E  E  E  E  E   
-------------------------|-------------------------|-------------------------|
-------------------------|-------------------------|-------------------------|
--5----5--5--5--5--5--5--|-------------------------|-------------------------|
--5----5--5--5--5--5--5--|--5----5--5--5--5--5--5--|--7----7--7--7--7--7--7--|
--3----3--3--3--3--3--3--|--5----5--5--5--5--5--5--|--7----7--7--7--7--7--7--|
-------------------------|--3----3--3--3--3--3--3--|--5----5--5--5--5--5--5--|


  Q    E  E  E  E  E  E     Q    E  E  E  E  E  E     Q    E  E  E  E  E  E   
-------------------------|-------------------------|-------------------------|
-------------------------|-------------------------|-------------------------|
-------------------------|--5----5--5--5--5--5--5--|-------------------------|
--3----3--3--3--3--3--3--|--5----5--5--5--5--5--5--|--5----5--5--5--5--5--5--|
--3----3--3--3--3--3--3--|--3----3--3--3--3--3--3--|--5----5--5--5--5--5--5--|
--1----1--1--1--1--1--1--|-------------------------|--3----3--3--3--3--3--3--|


  Q    E  E  E  E  E  E     Q    E  E  E  E  E  E     Q    E  E  E  E  E  E   
-------------------------|-------------------------|-------------------------|
-------------------------|-------------------------|-------------------------|
-------------------------|-------------------------|--5----5--5--5--5--5--5--|
--7----7--7--7--7--7--7--|--3----3--3--3--3--3--3--|--5----5--5--5--5--5--5--|
--7----7--7--7--7--7--7--|--3----3--3--3--3--3--3--|--3----3--3--3--3--3--3--|
--5----5--5--5--5--5--5--|--1----1--1--1--1--1--1--|-------------------------|


  Q    E  E  E  E  E  E     Q    E  E  E  E  E  E     Q    E  E  E  E  E  E   
-------------------------|-------------------------|-------------------------|
-------------------------|-------------------------|-------------------------|
-------------------------|-------------------------|-------------------------|
--5----5--5--5--5--5--5--|--7----7--7--7--7--7--7--|--3----3--3--3--3--3--3--|
--5----5--5--5--5--5--5--|--7----7--7--7--7--7--7--|--3----3--3--3--3--3--3--|
--3----3--3--3--3--3--3--|--5----5--5--5--5--5--5--|--1----1--1--1--1--1--1--|


  Q    E  E  E  E  E  E     Q    E  E  E  E  E  E     Q    E  E  E  E  E  E   
-------------------------|-------------------------|-------------------------|
-------------------------|-------------------------|-------------------------|
--5----5--5--5--5--5--5--|-------------------------|-------------------------|
--5----5--5--5--5--5--5--|--5----5--5--5--5--5--5--|--7----7--7--7--7--7--7--|
--3----3--3--3--3--3--3--|--5----5--5--5--5--5--5--|--7----7--7--7--7--7--7--|
-------------------------|--3----3--3--3--3--3--3--|--5----5--5--5--5--5--5--|






Bridge
  Q    E  E  E  E  E  E     W                   W                 
-------------------------|-------------------|-------------------|
-------------------------|-------------------|-------------------|
-------------------------|--5----------------|--L----------------|
--3----3--3--5--5--5--5--|--5----------------|--L----------------|
--3----3--3--5--5--5--5--|--3----------------|--L----------------|
--1----1--1--3--3--3--3--|-------------------|-------------------|


  W                   Q    Q    Q    Q       W                 
-------------------|----------------------|-------------------|
-------------------|----------------------|-------------------|
--L----------------|----------------------|--5----------------|
--L----------------|----------------------|--5----------------|
--L----------------|----------------------|--3----------------|
-------------------|----------------------|-------------------|


  W                   W                   W                 
-------------------|-------------------|-------------------|
-------------------|-------------------|-------------------|
--L----------------|--L----------------|--L----------------|
--L----------------|--L----------------|--L----------------|
--L----------------|--L----------------|--L----------------|
-------------------|-------------------|-------------------|


  PM PM PM PM PM PM PM PM    PM PM PM PM PM PM PM PM  
  E  E  E  E  E  E  E  E     E  E  E  E  E  E  E  E   
--------------------------|--------------------------|
--------------------------|--------------------------|
--------------------------|--------------------------|
--5--5--5--5--5--5--5--5--|--------------------------|
--3--3--3--3--3--3--3--3--|--5--5--5--5--5--5--5--5--|
--------------------------|--3--3--3--3--3--3--3--3--|


  PM PM PM PM PM PM PM PM    PM PM PM PM PM PM PM PM  
  E  E  E  E  E  E  E  E     E  E  E  E  E  E  E  E   
--------------------------|--------------------------|
--------------------------|--------------------------|
--------------------------|--------------------------|
--------------------------|--------------------------|
--7--7--7--7--7--7--7--7--|--3--3--3--3--5--5--5--5--|
--5--5--5--5--5--5--5--5--|--1--1--1--1--3--3--3--3--|


  PM PM PM PM PM PM PM PM    PM PM PM PM PM PM PM PM  
  E  E  E  E  E  E  E  E     E  E  E  E  E  E  E  E   
--------------------------|--------------------------|
--------------------------|--------------------------|
--------------------------|--------------------------|
--5--5--5--5--5--5--5--5--|--------------------------|
--3--3--3--3--3--3--3--3--|--5--5--5--5--5--5--5--5--|
--------------------------|--3--3--3--3--3--3--3--3--|






Chorus 3
  PM PM PM PM PM PM PM PM                                                       
  E  E  E  E  E  E  E  E     E  E  E  E  E  E  E  E     Q    E  E  E  E  E  E   
--------------------------|--------------------------|-------------------------|
--------------------------|--------------------------|-------------------------|
--------------------------|--------------------------|--5----5--5--5--5--5--5--|
--------------------------|--------------5--5--5--5--|--5----5--5--5--5--5--5--|
--7--7--7--7--7--7--7--7--|--3--3--3--3--5--5--5--5--|--3----3--3--3--3--3--3--|
--5--5--5--5--5--5--5--5--|--1--1--1--1--3--3--3--3--|-------------------------|


  Q    E  E  E  E  E  E     Q    E  E  E  E  E  E     Q    E  E  E  E  E  E   
-------------------------|-------------------------|-------------------------|
-------------------------|-------------------------|-------------------------|
-------------------------|-------------------------|-------------------------|
--5----5--5--5--5--5--5--|--7----7--7--7--7--7--7--|--3----3--3--3--3--3--3--|
--5----5--5--5--5--5--5--|--7----7--7--7--7--7--7--|--3----3--3--3--3--3--3--|
--3----3--3--3--3--3--3--|--5----5--5--5--5--5--5--|--1----1--1--1--1--1--1--|


  Q    E  E  E  E  E  E     Q    E  E  E  E  E  E     Q    E  E  E  E  E  E   
-------------------------|-------------------------|-------------------------|
-------------------------|-------------------------|-------------------------|
--5----5--5--5--5--5--5--|-------------------------|-------------------------|
--5----5--5--5--5--5--5--|--5----5--5--5--5--5--5--|--7----7--7--7--7--7--7--|
--3----3--3--3--3--3--3--|--5----5--5--5--5--5--5--|--7----7--7--7--7--7--7--|
-------------------------|--3----3--3--3--3--3--3--|--5----5--5--5--5--5--5--|


  Q    E  E  E  E  E  E     Q    E  E  E  E  E  E     Q    E  E  E  E  E  E   
-------------------------|-------------------------|-------------------------|
-------------------------|-------------------------|-------------------------|
-------------------------|--5----5--5--5--5--5--5--|-------------------------|
--3----3--3--3--3--3--3--|--5----5--5--5--5--5--5--|--5----5--5--5--5--5--5--|
--3----3--3--3--3--3--3--|--3----3--3--3--3--3--3--|--5----5--5--5--5--5--5--|
--1----1--1--1--1--1--1--|-------------------------|--3----3--3--3--3--3--3--|


  Q    E  E  E  E  E  E     Q    E  E  E  E  E  E     Q    E  E  E  E  E  E   
-------------------------|-------------------------|-------------------------|
-------------------------|-------------------------|-------------------------|
-------------------------|-------------------------|--5----5--5--5--5--5--5--|
--7----7--7--7--7--7--7--|--3----3--3--3--3--3--3--|--5----5--5--5--5--5--5--|
--7----7--7--7--7--7--7--|--3----3--3--3--3--3--3--|--3----3--3--3--3--3--3--|
--5----5--5--5--5--5--5--|--1----1--1--1--1--1--1--|-------------------------|


  Q    E  E  E  E  E  E     Q    E  E  E  E  E  E     Q    E  E  E  E  E  E   
-------------------------|-------------------------|-------------------------|
-------------------------|-------------------------|-------------------------|
-------------------------|-------------------------|-------------------------|
--5----5--5--5--5--5--5--|--7----7--7--7--7--7--7--|--3----3--3--5--5--5--5--|
--5----5--5--5--5--5--5--|--7----7--7--7--7--7--7--|--3----3--3--5--5--5--5--|
--3----3--3--3--3--3--3--|--5----5--5--5--5--5--5--|--1----1--1--3--3--3--3--|


  W                   W                   W                   W                 
-------------------|-------------------|-------------------|-------------------|
-------------------|-------------------|-------------------|-------------------|
--5----------------|--L----------------|--L----------------|--L----------------|
--5----------------|--L----------------|--L----------------|--L----------------|
--3----------------|--L----------------|--L----------------|--L----------------|
-------------------|-------------------|-------------------|-------------------|


-------|-------||
-------|-------||
-------|-------||
-------|-------||
-------|-------||
-------|-------||





- Lead Guitar -



E||-------|-------|-------|-------|-------|-------|-------|-------|-------|
B||-------|-------|-------|-------|-------|-------|-------|-------|-------|
G||-------|-------|-------|-------|-------|-------|-------|-------|-------|
D||-------|-------|-------|-------|-------|-------|-------|-------|-------|
A||-------|-------|-------|-------|-------|-------|-------|-------|-------|
E||-------|-------|-------|-------|-------|-------|-------|-------|-------|






Chorus 1
                                  H        H          
-------|-------|-------|-------|---------------------|
-------|-------|-------|-------|---------------------|
-------|-------|-------|-------|-----------7/--------|
-------|-------|-------|-------|-----------x---------|
-------|-------|-------|-------|-----------5/--------|
-------|-------|-------|-------|---------------------|


   E   E   E   E   E   E  E  E      E   E   E  E  E  E  E  E   
--------------------------------|-----------------------------|
--------------------------------|-----------------------------|
--12--12--12--10--10--10--9--9--|--10--10--10--9--9--9--7--7--|
---x---x---x---x---x---x--x--x--|---x---x---x--x--x--x--x--x--|
--10--10--10---8---8---8--7--7--|---8---8---8--7--7--7--5--5--|
--------------------------------|-----------------------------|


   E   E   E  E  E  E  E  E     E  E  E  E  E  E  E  E   
-----------------------------|--------------------------|
-----------------------------|--------------------------|
--10--10--10--9--9--9--7--0--|--------------------------|
---x---x---x--x--x--x--x--0--|--------------------------|
---8---8---8--7--7--7--5--0--|--3--3--3--3--3--3--3--3--|
-----------------------------|--1--1--1--1--1--1--1--1--|


   E   E   E   E   E   E  E  E      E   E   E  E  E  E  E  E   
--------------------------------|-----------------------------|
--------------------------------|-----------------------------|
--12--12--12--10--10--10--9--9--|--10--10--10--9--9--9--7--7--|
---x---x---x---x---x---x--x--x--|---x---x---x--x--x--x--x--x--|
--10--10--10---8---8---8--7--7--|---8---8---8--7--7--7--5--5--|
--------------------------------|-----------------------------|


   E   E   E  E  E  E  E  E     E  E  E  E  E  E  E  E   
-----------------------------|--------------------------|
-----------------------------|--------------------------|
--10--10--10--9--9--9--7--0--|--------------------------|
---x---x---x--x--x--x--x--0--|--------------------------|
---8---8---8--7--7--7--5--0--|--3--3--3--3--3--3--3--3--|
-----------------------------|--1--1--1--1--1--1--1--1--|


   E   E   E   E   E   E  E  E      E   E   E  E  E  E  E  E   
--------------------------------|-----------------------------|
--------------------------------|-----------------------------|
--12--12--12--10--10--10--9--9--|--10--10--10--9--9--9--7--7--|
---x---x---x---x---x---x--x--x--|---x---x---x--x--x--x--x--x--|
--10--10--10---8---8---8--7--7--|---8---8---8--7--7--7--5--5--|
--------------------------------|-----------------------------|


   E   E   E  E  E  E  E  E     E  E  E  E  E  E  E  E   
-----------------------------|--------------------------|
-----------------------------|--------------------------|
--10--10--10--9--9--9--7--0--|--------------------------|
---x---x---x--x--x--x--x--0--|--------------------------|
---8---8---8--7--7--7--5--0--|--3--3--3--3--3--3--3--3--|
-----------------------------|--1--1--1--1--1--1--1--1--|


   E   E   E   E   E   E  E  E      E   E   E  E  E  E  E  E   
--------------------------------|-----------------------------|
--------------------------------|-----------------------------|
--12--12--12--10--10--10--9--9--|--10--10--10--9--9--9--7--7--|
---x---x---x---x---x---x--x--x--|---x---x---x--x--x--x--x--x--|
--10--10--10---8---8---8--7--7--|---8---8---8--7--7--7--5--5--|
--------------------------------|-----------------------------|


   E   E   E  E  E  E  E  E     E  E  E  E  E  E  E  E     W                 
-----------------------------|--------------------------|-------------------|
-----------------------------|--------------------------|-------------------|
--10--10--10--9--9--9--7--0--|--------------------------|--5----------------|
---x---x---x--x--x--x--x--0--|--------------------------|-------------------|
---8---8---8--7--7--7--5--0--|--3--3--3--3--5--5--5--5--|--3----------------|
-----------------------------|--1--1--1--1--3--3--3--3--|-------------------|


  W                   W                   W                                 
-------------------|-------------------|-------------------|-------|-------|
-------------------|-------------------|-------------------|-------|-------|
--L----------------|--L----------------|--L----------------|-------|-------|
-------------------|-------------------|-------------------|-------|-------|
--L----------------|--L----------------|--L----------------|-------|-------|
-------------------|-------------------|-------------------|-------|-------|


-------|-------|-------|-------|-------|-------|-------|-------|-------|
-------|-------|-------|-------|-------|-------|-------|-------|-------|
-------|-------|-------|-------|-------|-------|-------|-------|-------|
-------|-------|-------|-------|-------|-------|-------|-------|-------|
-------|-------|-------|-------|-------|-------|-------|-------|-------|
-------|-------|-------|-------|-------|-------|-------|-------|-------|






Chorus 2
  H        H             E   E   E   E   E   E  E  E   
---------------------|--------------------------------|
---------------------|--------------------------------|
-----------7/--------|--12--12--12--10--10--10--9--9--|
-----------x---------|---x---x---x---x---x---x--x--x--|
-----------5/--------|--10--10--10---8---8---8--7--7--|
---------------------|--------------------------------|


   E   E   E  E  E  E  E  E      E   E   E  E  E  E  E  E   
-----------------------------|-----------------------------|
-----------------------------|-----------------------------|
--10--10--10--9--9--9--7--7--|--10--10--10--9--9--9--7--0--|
---x---x---x--x--x--x--x--x--|---x---x---x--x--x--x--x--0--|
---8---8---8--7--7--7--5--5--|---8---8---8--7--7--7--5--0--|
-----------------------------|-----------------------------|


  E  E  E  E  E  E  E  E      E   E   E   E   E   E  E  E   
--------------------------|--------------------------------|
--------------------------|--------------------------------|
--------------------------|--12--12--12--10--10--10--9--9--|
--------------------------|---x---x---x---x---x---x--x--x--|
--3--3--3--3--3--3--3--3--|--10--10--10---8---8---8--7--7--|
--1--1--1--1--1--1--1--1--|--------------------------------|


   E   E   E  E  E  E  E  E      E   E   E  E  E  E  E  E   
-----------------------------|-----------------------------|
-----------------------------|-----------------------------|
--10--10--10--9--9--9--7--7--|--10--10--10--9--9--9--7--0--|
---x---x---x--x--x--x--x--x--|---x---x---x--x--x--x--x--0--|
---8---8---8--7--7--7--5--5--|---8---8---8--7--7--7--5--0--|
-----------------------------|-----------------------------|


  E  E  E  E  E  E  E  E      E   E   E   E   E   E  E  E   
--------------------------|--------------------------------|
--------------------------|--------------------------------|
--------------------------|--12--12--12--10--10--10--9--9--|
--------------------------|---x---x---x---x---x---x--x--x--|
--3--3--3--3--3--3--3--3--|--10--10--10---8---8---8--7--7--|
--1--1--1--1--1--1--1--1--|--------------------------------|


   E   E   E  E  E  E  E  E      E   E   E  E  E  E  E  E   
-----------------------------|-----------------------------|
-----------------------------|-----------------------------|
--10--10--10--9--9--9--7--7--|--10--10--10--9--9--9--7--0--|
---x---x---x--x--x--x--x--x--|---x---x---x--x--x--x--x--0--|
---8---8---8--7--7--7--5--5--|---8---8---8--7--7--7--5--0--|
-----------------------------|-----------------------------|


  E  E  E  E  E  E  E  E      E   E   E   E   E   E  E  E   
--------------------------|--------------------------------|
--------------------------|--------------------------------|
--------------------------|--12--12--12--10--10--10--9--9--|
--------------------------|---x---x---x---x---x---x--x--x--|
--3--3--3--3--3--3--3--3--|--10--10--10---8---8---8--7--7--|
--1--1--1--1--1--1--1--1--|--------------------------------|


   E   E   E  E  E  E  E  E      E   E   E  E  E  E  E  E   
-----------------------------|-----------------------------|
-----------------------------|-----------------------------|
--10--10--10--9--9--9--7--7--|--10--10--10--9--9--9--7--0--|
---x---x---x--x--x--x--x--x--|---x---x---x--x--x--x--x--0--|
---8---8---8--7--7--7--5--5--|---8---8---8--7--7--7--5--0--|
-----------------------------|-----------------------------|


  E  E  E  E  E  E  E  E                                                   
--------------------------|-------|-------|-------|-------|-------|-------|
--------------------------|-------|-------|-------|-------|-------|-------|
--------------------------|-------|-------|-------|-------|-------|-------|
--------------------------|-------|-------|-------|-------|-------|-------|
--3--3--3--3--5--5--5--5--|-------|-------|-------|-------|-------|-------|
--1--1--1--1--3--3--3--3--|-------|-------|-------|-------|-------|-------|






Verse 2
                  E  E  E  E   E  E  E  E     E  E  E  E   E  E  E  E   
-------|-------|---------------------------|---------------------------|
-------|-------|---------------------------|---------------------------|
-------|-------|---------------------------|---------------------------|
-------|-------|--5--3--x--2h--3--x--0--x--|--5--3--x--2h--3--x--0--x--|
-------|-------|---------------------------|---------------------------|
-------|-------|---------------------------|---------------------------|


  E  E  E  E   E  E  E  E     E  E  E  E  E  E  E  E   
---------------------------|--------------------------|
---------------------------|--------------------------|
---------------------------|--------------------------|
--5--3--x--2h--3--x--0--x--|--------------------------|
---------------------------|--------------------------|
---------------------------|--1--1--x--1--1--x--1--x--|


  E  E  E  E   E  E  E  E     E  E  E  E   E  E  E  E   
---------------------------|---------------------------|
---------------------------|---------------------------|
---------------------------|---------------------------|
--5--3--x--2h--3--x--0--x--|--5--3--x--2h--3--x--0--x--|
---------------------------|---------------------------|
---------------------------|---------------------------|


  E  E  E  E   E  E  E  E     S S S S S S S S S S S S S S S S  
---------------------------|----------------------------------|
---------------------------|----------------------------------|
---------------------------|----------------------------------|
--5--3--x--2h--3--x--0--x--|----------------------------------|
---------------------------|----------------------------------|
---------------------------|--1-1-1-1-1-1-1-1-3-3-3-3-3-3-3-3-|






Chorus 2
    E   E   E   E   E   E  E  E      E   E   E  E  E  E  E  E   
---------------------------------|-----------------------------|
---------------------------------|-----------------------------|
--/12--12--12--10--10--10--9--9--|--10--10--10--9--9--9--7--7--|
----x---x---x---x---x---x--x--x--|---x---x---x--x--x--x--x--x--|
--/10--10--10---8---8---8--7--7--|---8---8---8--7--7--7--5--5--|
---------------------------------|-----------------------------|


   E   E   E  E  E  E  E  E     E  E  E  E  E  E  E  E   
-----------------------------|--------------------------|
-----------------------------|--------------------------|
--10--10--10--9--9--9--7--0--|--------------------------|
---x---x---x--x--x--x--x--0--|--------------------------|
---8---8---8--7--7--7--5--0--|--3--3--3--3--3--3--3--3--|
-----------------------------|--1--1--1--1--1--1--1--1--|


   E   E   E   E   E   E  E  E      E   E   E  E  E  E  E  E   
--------------------------------|-----------------------------|
--------------------------------|-----------------------------|
--12--12--12--10--10--10--9--9--|--10--10--10--9--9--9--7--7--|
---x---x---x---x---x---x--x--x--|---x---x---x--x--x--x--x--x--|
--10--10--10---8---8---8--7--7--|---8---8---8--7--7--7--5--5--|
--------------------------------|-----------------------------|


   E   E   E  E  E  E  E  E     E  E  E  E  E  E  E  E   
-----------------------------|--------------------------|
-----------------------------|--------------------------|
--10--10--10--9--9--9--7--0--|--------------------------|
---x---x---x--x--x--x--x--0--|--------------------------|
---8---8---8--7--7--7--5--0--|--3--3--3--3--3--3--3--3--|
-----------------------------|--1--1--1--1--1--1--1--1--|


   E   E   E   E   E   E  E  E      E   E   E  E  E  E  E  E   
--------------------------------|-----------------------------|
--------------------------------|-----------------------------|
--12--12--12--10--10--10--9--9--|--10--10--10--9--9--9--7--7--|
---x---x---x---x---x---x--x--x--|---x---x---x--x--x--x--x--x--|
--10--10--10---8---8---8--7--7--|---8---8---8--7--7--7--5--5--|
--------------------------------|-----------------------------|


   E   E   E  E  E  E  E  E     E  E  E  E  E  E  E  E   
-----------------------------|--------------------------|
-----------------------------|--------------------------|
--10--10--10--9--9--9--7--0--|--------------------------|
---x---x---x--x--x--x--x--0--|--------------------------|
---8---8---8--7--7--7--5--0--|--3--3--3--3--3--3--3--3--|
-----------------------------|--1--1--1--1--1--1--1--1--|


   E   E   E   E   E   E  E  E      E   E   E  E  E  E  E  E   
--------------------------------|-----------------------------|
--------------------------------|-----------------------------|
--12--12--12--10--10--10--9--9--|--10--10--10--9--9--9--7--7--|
---x---x---x---x---x---x--x--x--|---x---x---x--x--x--x--x--x--|
--10--10--10---8---8---8--7--7--|---8---8---8--7--7--7--5--5--|
--------------------------------|-----------------------------|


   E   E   E  E  E  E  E  E     E  E  E  E  E  E  E  E   
-----------------------------|--------------------------|
-----------------------------|--------------------------|
--10--10--10--9--9--9--7--0--|--------------------------|
---x---x---x--x--x--x--x--0--|--------------------------|
---8---8---8--7--7--7--5--0--|--3--3--3--3--5--5--5--5--|
-----------------------------|--1--1--1--1--3--3--3--3--|






Bridge / Solo
  E  E  E  E  E  E  E  E     E  E  E  E  E  E  E  E   
--------------------------|--------------------------|
--------------------------|--------------------------|
--------------------------|--------------------------|
--5--5--5--3--3--3--2--2--|--------------------2--2--|
--------------------------|--3--3--3--3--3--3--------|
--------------------------|--------------------------|


  E  E  E  E  E  E  E  E     E  E  E  E  E  E  E  E   
--------------------------|--------------------------|
--------------------------|--------------------------|
--------------------------|--------------------------|
--3--3--3--2--2--2--------|--------------------------|
--------------------3-----|--------------------------|
-----------------------3--|--1--1--1--1--1--1--1--0--|


  E  E  E  E  E  E  E  E     E  E  E  E  E  E  E  E   
--------------------------|--------------------------|
--------------------------|--------------------------|
--------------------------|--------------------------|
--5--5--5--3--3--3--2--2--|--------------------2--2--|
--------------------------|--3--3--3--3--3--3--------|
--------------------------|--------------------------|


  E  E  E  E  E  E  E  E     E  E  E  E  E  E  E  E   
--------------------------|--------------------------|
--------------------------|--------------------------|
--------------------------|--------------------------|
--3--3--3--2--2--2--------|--------------------------|
--------------------3-----|--------------------------|
-----------------------3--|--1--1--1--1--1--1--1--0--|


  E  E  E  E  E  E  E  E     E  E  E  E  E  E  E  E   
--------------------------|--------------------------|
--------------------------|--------------------------|
--------------------------|--------------------------|
--5--5--5--3--3--3--2--2--|--------------------------|
--------------------------|--3--3--3--3--3--3--3--3--|
--------------------------|--------------------------|


  E  E  E  E  E  E  E  E     E  E  E  E  E  E  E  E   
--------------------------|--------------------------|
--------------------------|--------------------------|
--------------------------|--------------------------|
--0--0--0--2--2--2--3--2--|--0--0--0--2--2--2--0-----|
--------------------------|-----------------------3--|
--------------------------|--------------------------|


  E  E  E  E  E  E  E  E     E  E  E  E  E  E  E  E   
--------------------------|--------------------------|
--------------------------|--------------------------|
--------------------------|--------------------------|
--5--5--5--3--3--3--2--2--|--------------------2--2--|
--------------------------|--3--3--3--3--3--3--------|
--------------------------|--------------------------|


  S S  S  S S S  S  S S S  S  S S S  S  S    E  E  E  E  E  E  E  E   
------------------------------------------|--------------------------|
------------------------------------------|--------------------------|
------------------------------------------|--------------------------|
--5-5p-3p-2-5-5p-3p-2-5-5p-3p-2-5-5p-3p-2-|--------------------------|
------------------------------------------|--------------------------|
------------------------------------------|--1--1--1--1--3--3--3--3--|






Chorus 3
   E   E   E   E   E   E  E  E      E   E   E  E  E  E  E  E   
--------------------------------|-----------------------------|
--------------------------------|-----------------------------|
--12--12--12--10--10--10--9--9--|--10--10--10--9--9--9--7--7--|
---x---x---x---x---x---x--x--x--|---x---x---x--x--x--x--x--x--|
--10--10--10---8---8---8--7--7--|---8---8---8--7--7--7--5--5--|
--------------------------------|-----------------------------|


   E   E   E  E  E  E  E  E     E  E  E  E  E  E  E  E   
-----------------------------|--------------------------|
-----------------------------|--------------------------|
--10--10--10--9--9--9--7--0--|--------------------------|
---x---x---x--x--x--x--x--0--|--------------------------|
---8---8---8--7--7--7--5--0--|--3--3--3--3--3--3--3--3--|
-----------------------------|--1--1--1--1--1--1--1--1--|


   E   E   E   E   E   E  E  E      E   E   E  E  E  E  E  E   
--------------------------------|-----------------------------|
--------------------------------|-----------------------------|
--12--12--12--10--10--10--9--9--|--10--10--10--9--9--9--7--7--|
---x---x---x---x---x---x--x--x--|---x---x---x--x--x--x--x--x--|
--10--10--10---8---8---8--7--7--|---8---8---8--7--7--7--5--5--|
--------------------------------|-----------------------------|


   E   E   E  E  E  E  E  E     E  E  E  E  E  E  E  E   
-----------------------------|--------------------------|
-----------------------------|--------------------------|
--10--10--10--9--9--9--7--0--|--------------------------|
---x---x---x--x--x--x--x--0--|--------------------------|
---8---8---8--7--7--7--5--0--|--3--3--3--3--3--3--3--3--|
-----------------------------|--1--1--1--1--1--1--1--1--|


   E   E   E   E   E   E  E  E      E   E   E  E  E  E  E  E   
--------------------------------|-----------------------------|
--------------------------------|-----------------------------|
--12--12--12--10--10--10--9--9--|--10--10--10--9--9--9--7--7--|
---x---x---x---x---x---x--x--x--|---x---x---x--x--x--x--x--x--|
--10--10--10---8---8---8--7--7--|---8---8---8--7--7--7--5--5--|
--------------------------------|-----------------------------|


   E   E   E  E  E  E  E  E     E  E  E  E  E  E  E  E   
-----------------------------|--------------------------|
-----------------------------|--------------------------|
--10--10--10--9--9--9--7--0--|--------------------------|
---x---x---x--x--x--x--x--0--|--------------------------|
---8---8---8--7--7--7--5--0--|--3--3--3--3--3--3--3--3--|
-----------------------------|--1--1--1--1--1--1--1--1--|


   E   E   E   E   E   E  E  E      E   E   E  E  E  E  E  E   
--------------------------------|-----------------------------|
--------------------------------|-----------------------------|
--12--12--12--10--10--10--9--9--|--10--10--10--9--9--9--7--7--|
---x---x---x---x---x---x--x--x--|---x---x---x--x--x--x--x--x--|
--10--10--10---8---8---8--7--7--|---8---8---8--7--7--7--5--5--|
--------------------------------|-----------------------------|


   E   E   E  E  E  E  E  E     E  E  E  E  E  E  E  E      W                 
-----------------------------|--------------------------|--------------------|
-----------------------------|--------------------------|--------------------|
--10--10--10--9--9--9--7--0--|--------------------------|--12----------------|
---x---x---x--x--x--x--x--0--|--------------------------|---x----------------|
---8---8---8--7--7--7--5--0--|--3--3--3--3--5--5--5--5--|--10----------------|
-----------------------------|--1--1--1--1--3--3--3--3--|--------------------|


  W                   W                   W                                  
-------------------|-------------------|-------------------|-------|-------||
-------------------|-------------------|-------------------|-------|-------||
--L----------------|--L----------------|--L----------------|-------|-------||
-------------------|-------------------|-------------------|-------|-------||
--L----------------|--L----------------|--L----------------|-------|-------||
-------------------|-------------------|-------------------|-------|-------||









Duration Legend
---------------
W - whole
H - half
Q - quarter
E - 8th
S - 16th
T - 32nd
X - 64th
. - note dotted
|-n-|  - n-tuplets


Tablature Legend
----------------
L - tied note
x - dead note
g - grace note
(n) - ghost note
> - accentuded note
NH - natural harmonic
AH - artificial harmonic
TH - tapped harmonic
SH - semi harmonic
PH - pitch harmonic
h - hammer on
p - pull off
b - bend
br - bendRelease
pb - preBend
pbr - preBendRelease
brb - bendReleaseBend
\n/ - tremolo bar dip
\n - tremolo bar dive
-/n - tremolo bar Release up
/n\ - tremolo bar inverted dip
/n - tremolo bar return
-\n - tremolo bar Release down
S - shift slide
s - legato slide
/ -  slide into from below or out of upwards
\ -  slide into from above or out of downwards
~ - vibrato
W - wide vibrato
tr - trill
TP - tremolo picking
T - tapping
S - slap
P - pop
< - fade in
^ - brush up
v - brush down

            
            
Suggest correction
Creating personal tab
Creating personal tab
You can edit any tab online and save it as your Personal.

You can edit, replace or remove any tab part or add personal notes – all changes will be seen only by you.

Personal tabs can be accessed anytime from any device, even offline.
Learn more »
Give kudos to tab author, rate the tab!
1 2 3 4 5
comments
print report bad tab
guest
You may want to rate the tab now too:
select rating
Wanna post a correction for this tab? Suggest correction