Oops, an error
Loading. Please wait.

Kammthaar tab

version 1
version 1

Whole song

Interactive

2,224 views 60 this week
no commentswrite comment
1 2 3 4 5
3 more votes to show rating
add to favorites
×
Save as Personal and add changes to this tab that will be seen only by you. Learn more ›
×
You can save this tab as Personal to edit and correct it or add notes. All changes will be seen only by you. Learn more »
launch autoscroll
font size
0
reset
how to read this tab
guitar tuner
edit
Autoscroll
slow
fast
+/-
esc
set tempo
stop
----------------------------------------------------------------------------------------------------
                                  Ultra Vomit - Kammthaar
----------------------------------------------------------------------------------------------------

Album : Panzer Surprise ! (2017)
Tempo : 133
E-mail: gwendal.mollo@orange.fr
Tabbed by: newg    (http://profile.ultimate-guitar.com/newg/)

Voir mon fichier guitar pro pour plus d'info

[Intro]    
                                                                      
D|----------------------------|----------------------------|
A|----------------------------|----------------------------|
F|----------------------------|----------------------------|
C|--1-----1-------------------|----------------------------|
G|--1-----1-------------------|----------------------------|
C|--1-----1-----0M-0M-0M-0M---|--0M-0M-0M-0M-0M-0M-0M-0M---| x3

D|----------------------------|----------------------------|
A|----------------------------|----------------------------|
F|----------------------------|----------------------------|
C|--1-----1-------------------|--------------------12\-----|
G|--1-----1-------------------|--------------------12\-----|
C|--1-----1-------------------|--------------------12\-----|


[Riff]

D|--------------------------|---------------------------|-------------------------|----------------------|
A|--------------------------|---------------------------|-------------------------|----------------------|
F|--------------------------|---------------------------|-------------------------|----------------------|
C|--3-----------------------|-1/3-----------------------|-------------------------|----------------------|
G|--3-----------------------|-1/3--------------5--3-----|-------------------------|----------------------|
C|--3--0--0--0--0--0--0--0--|-1/3--0--0--0-3h5-------5--|-3b-0--0--0--0--0--0--0--|--0--0--0--0--1---1---| x2


[Verse 1]

D|-------------------------|-------------------------|-------------------------|
A|-------------------------|-------------------------|-------------------------|
F|-------------------------|-------------------------|-------------------------|
C|-------------------------|----------------------0--|-1/3---------------------|
G|-------------------------|----------------------0--|-1/3------------5--3-----|
C|-0--0--0--0--0--0--0--0--|-0--0--0--0--0--0--0--0--|-1/3--0---0-3h5-------5--|


D|-------------------------|-------------------------|---------------------|
A|-------------------------|-------------------------|---------------------|
F|-------------------------|-------------------------|---------------------|
C|-------------------------|----------------------0--|-1/3---------1----1--|
G|-------------------------|----------------------0--|-1/3---------1----1--|
C|-3b-0--0--0--0--0--0--0--|-0--0--0--0--0--0--0--0--|-1/3--0---0--1----1--|

    F5  D#5      C#5  C5
D|------------|------------|
A|------------|------------|
F|------------|------------|
C|--5----3----|--1----0----|
G|--5----3----|--1----0----|
C|--5----3----|--1----0----|

[Chorus]
    F5                           D#5                     A#5                          D#5          
D|--------------------------|--------------------------|--------------------------|--------------------------|
A|--------------------------|--------------------------|--------------------------|--------------------------|
F|--------------------------|--------------------------|--5-----5--5--5--5--5--5--|--------------------------|
C|--5-----5--5--5--5--5--5--|--3-----3--3--3--3--3--3--|--5-----5--5--5--5--5--5--|--3-----3--3--3--3--3--3--|
G|--5-----5--5--5--5--5--5--|--3-----3--3--3--3--3--3--|--3-----3--3--3--3--3--3--|--3-----3--3--3--3--3--3--|
C|--5-----5--5--5--5--5--5--|--3-----3--3--3--3--3--3--|--------------------------|--3-----3--3--3--3--3--3--|

    C#                        F5                         C5#                         C5 
D|--------------------------|--------------------------|--------------------------|--------------------------|
A|--------------------------|--------------------------|--------------------------|--------------------------|
F|--------------------------|--------------------------|--------------------------|--------------------------|
C|--1-----1--1-----1--1--1--|--5-----5--5-----5--5--5--|--1-----1--1-----1--1--1--|--0--0--0--0--0--0--0--0--|
G|--1-----1--1-----1--1--1--|--5-----5--5-----5--5--5--|--1-----1--1-----1--1--1--|--0--0--0--0--0--0--0--0--|
C|--1-----1--1-----1--1--1--|--5-----5--5-----5--5--5--|--1-----1--1-----1--1--1--|--0--0--0--0--0--0--0--0--|



    F5                           D#5                     A#5                          D#5          
D|--------------------------|--------------------------|--------------------------|--------------------------|
A|--------------------------|--------------------------|--------------------------|--------------------------|
F|--------------------------|--------------------------|--5-----5--5--5--5--5--5--|--------------------------|
C|--5-----5--5--5--5--5--5--|--3-----3--3--3--3--3--3--|--5-----5--5--5--5--5--5--|--3-----3--3--3--3--3--3--|
G|--5-----5--5--5--5--5--5--|--3-----3--3--3--3--3--3--|--3-----3--3--3--3--3--3--|--3-----3--3--3--3--3--3--|
C|--5-----5--5--5--5--5--5--|--3-----3--3--3--3--3--3--|--------------------------|--3-----3--3--3--3--3--3--|

    C#                        F5                         C#5                         Ab5         G5 
D|--------------------------|--------------------------|--------------------------|--------------------------|
A|--------------------------|--------------------------|--------------------------|--------------------------|
F|--------------------------|--------------------------|--------------------------|--3-----------2-----------|
C|--1-----1--1-----1--1--1--|--5-----5--5-----5--5--5--|--1-----1--1-----1--1--1--|--3-----------2-----------|
G|--1-----1--1-----1--1--1--|--5-----5--5-----5--5--5--|--1-----1--1-----1--1--1--|--1-----------0-----------|
C|--1-----1--1-----1--1--1--|--5-----5--5-----5--5--5--|--1-----1--1-----1--1--1--|--------------------------|


[Riff]

D|--------------------------|---------------------------|-------------------------|----------------------|
A|--------------------------|---------------------------|-------------------------|----------------------|
F|--------------------------|---------------------------|-------------------------|----------------------|
C|--3-----------------------|-1/3-----------------------|-------------------------|----------------------|
G|--3-----------------------|-1/3--------------5--3-----|-------------------------|----------------------|
C|--3--0--0--0--0--0--0--0--|-1/3--0--0--0-3h5-------5--|-3b-0--0--0--0--0--0--0--|--0--0--0--0--1---1---| x2


[Verse 2]
    F5      C5     C#5      C5      C#5     D#5    A#5     C#5     C5          C5
D|-------|-------|-------|-------|-------|-------|-------|-------|----------|--------|
A|-------|-------|-------|-------|-------|-------|-------|-------|----------|--------|
F|-------|-------|-------|-------|-------|-------|-------|-------|----------|-----7--|
C|--5----|--4----|--1----|--0----|--1----|--3----|-------|--1----|--0--4----|--7-----|
G|-------|-------|-------|-------|-------|-------|--3----|-------|----------|--------|
C|-------|-------|-------|-------|-------|-------|-------|-------|----------|--------|

[Chorus]
    F5                           D#5                     A#5                          D#5          
D|--------------------------|--------------------------|--------------------------|--------------------------|
A|--------------------------|--------------------------|--------------------------|--------------------------|
F|--------------------------|--------------------------|--5-----5--5--5--5--5--5--|--------------------------|
C|--5-----5--5--5--5--5--5--|--3-----3--3--3--3--3--3--|--5-----5--5--5--5--5--5--|--3-----3--3--3--3--3--3--|
G|--5-----5--5--5--5--5--5--|--3-----3--3--3--3--3--3--|--3-----3--3--3--3--3--3--|--3-----3--3--3--3--3--3--|
C|--5-----5--5--5--5--5--5--|--3-----3--3--3--3--3--3--|--------------------------|--3-----3--3--3--3--3--3--|

    C#                        F5                         C5#                         C5 
D|--------------------------|--------------------------|--------------------------|--------------------------|
A|--------------------------|--------------------------|--------------------------|--------------------------|
F|--------------------------|--------------------------|--------------------------|--------------------------|
C|--1-----1--1-----1--1--1--|--5-----5--5-----5--5--5--|--1-----1--1-----1--1--1--|--0--0--0--0--0--0--0--0--|
G|--1-----1--1-----1--1--1--|--5-----5--5-----5--5--5--|--1-----1--1-----1--1--1--|--0--0--0--0--0--0--0--0--|
C|--1-----1--1-----1--1--1--|--5-----5--5-----5--5--5--|--1-----1--1-----1--1--1--|--0--0--0--0--0--0--0--0--|



    F5                           D#5                     A#5                          D#5          
D|--------------------------|--------------------------|--------------------------|--------------------------|
A|--------------------------|--------------------------|--------------------------|--------------------------|
F|--------------------------|--------------------------|--5-----5--5--5--5--5--5--|--------------------------|
C|--5-----5--5--5--5--5--5--|--3-----3--3--3--3--3--3--|--5-----5--5--5--5--5--5--|--3-----3--3--3--3--3--3--|
G|--5-----5--5--5--5--5--5--|--3-----3--3--3--3--3--3--|--3-----3--3--3--3--3--3--|--3-----3--3--3--3--3--3--|
C|--5-----5--5--5--5--5--5--|--3-----3--3--3--3--3--3--|--------------------------|--3-----3--3--3--3--3--3--|

    C#                        F5                         C#5                         Ab5         G5 
D|--------------------------|--------------------------|--------------------------|--------------------------|
A|--------------------------|--------------------------|--------------------------|--------------------------|
F|--------------------------|--------------------------|--------------------------|--3-----------2-----------|
C|--1-----1--1-----1--1--1--|--5-----5--5-----5--5--5--|--1-----1--1-----1--1--1--|--3-----------2-----------|
G|--1-----1--1-----1--1--1--|--5-----5--5-----5--5--5--|--1-----1--1-----1--1--1--|--1-----------0-----------|
C|--1-----1--1-----1--1--1--|--5-----5--5-----5--5--5--|--1-----1--1-----1--1--1--|--------------------------|

[Outro]

D|------------------------------------|
A|------------------------------------|
F|------------------------------------|
C|------------------------------------|
G|------------------------------------|
C|---1---------1-----0-0-0-0-0-0-0-0--| x4

D|------------------------------------|------------------------------------|
A|------------------------------------|------------------------------------|
F|------------------------------------|------------------------------------|
C|--------------------3-4-3-0-1-2-1-0-|-------------------5-6-5-0-6-7-6-8--|
G|------------------------------------|------------------------------------|
C|---1---------1----------------------|---1---------1----------------------| x2



            
            
Suggest correction
Creating personal tab
Creating personal tab
You can edit any tab online and save it as your Personal.

You can edit, replace or remove any tab part or add personal notes – all changes will be seen only by you.

Personal tabs can be accessed anytime from any device, even offline.
Learn more »
Give kudos to tab author, rate the tab!
1 2 3 4 5
comments
print report bad tab
guest
You may want to rate the tab now too:
select rating
Wanna post a correction for this tab? Suggest correction