Oops, an error
Loading. Please wait.

Burnt Tab

1 view 1 this week
no commentswrite comment
1 2 3 4 5
3 more votes to show rating
add to favorites
launch autoscroll
font size
0
reset
how to read this tab
guitar tuner
Autoscroll
slow
fast
+/-
esc
set tempo
stop
Help us to improve Ultimate-Guitar.com Take our survey!
×
Author
Difficulty
Tuning
novice
C# G# C# F# A# D#
"Burnt" - Ultraspank
Tuning - Db Ab Db Gb Bb Eb (Drop Db)

4/4 - Timing


[Intro]

  2x |Riff 1 
D#|------------------------------|------------------------------|------------------------------|
A#|------------------------------|------------------------------|------------------------------|
F#|------------------------------|------------------------------|------------------------------|
C#|------------------------------|------------------------------|-6-0---6-0---6-0---6-0--3--5--|
G#|-6-0---6-0---6-0---6-0--3--5--|-6-0---6-0---6-0---6-0--3--5--|-6-0---6-0---6-0---6-0--3--5--|
C#|-6-0---6-0---6-0---6-0--3--5--|-6-0---6-0---6-0---6-0--3--5--|-6-0---6-0---6-0---6-0--3--5--|
p.m.............................gradually release p.m.

Repeat Riff 1 8x

  Riff 2 Gtr 1...........*
D#|-----------------------|-----------------------|
A#|-----15----------13----|-----15----------13----|
F#|---------12---13----13-|---------12---13----13-|
C#|-12--------------------|-12--------------------|
G#|-----------------------|-----------------------|
C#|-----------------------|-----------------------|

  |Gtr 2 | |
D#|-----------------------|-----------------------|
A#|-----------------------|-----------------------|
F#|-----------------------|-----------------------|
C#|-0---------------------|-----------------------|
G#|-0---------------------|-0---------------------|
C#|-0---------------------|-0---------------------|
p.m.

  Riff 3A Gtr 2 (w/Gtr 1 playing Riff 2)
  4x
D#|---------------------------|
A#|---------------------------|
F#|---------------------------|
C#|---------------------------|
G#|-0---3---6---0-0-1-1-1-2-2-|
C#|-0---3---6---0-0-1-1-1-2-2-|
p.m........................

  Riff 3B 3x
D#|---------------------------|
A#|---------------------------|
F#|---------------------------|
C#|-0---3---6---0-0-1-1-1-2-2-|
G#|-0---3---6---0-0-1-1-1-2-2-|
C#|-0---3---6---0-0-1-1-1-2-2-|

D#|-------------------------|
A#|-------------------------|
F#|-------------------------|
C#|-0---3---6---0-0-0-0-0---|
G#|-0---3---6---0-0-0-0-0---|
C#|-0---3---6---0-0-0-0-0---|

Repeat Riff 3A 2x
Repeat Riff 3A & Riff 2 4x
Repeat Riff 3B 4x
Repeat Riff 3B 8x

  Riff 4 4x
D#|--------------|
A#|--------------|
F#|--------------|
C#|-0--5--3------|
G#|-0--5--3------|
C#|-0--5--3------|

  8x
D#|--------------|
A#|--------------|
F#|--------------|
C#|-0--5--3----5-|
G#|-0--5--3----5-|
C#|-0--5--3----5-|

  Repeat Riff 1 10x
  Repeat Riff 2 4x 
D#|-------------------|
A#|-------------------|
F#|-------------------|
C#|---------0-0-1-1-1-|
G#|---------0-0-1-1-1-|
C#|---------0-0-1-1-1-|

  Repeat Riff 3B 4x
  Repeat Riff 4 
  Repeat Riff 1
D#|------------------------------|
A#|------------------------------|
F#|------------------------------|
C#|=6-0--6-0---6-0---------------|
G#|=6-0--6-0---6-0-1-2-3-4-5-----|
C#|=6-0--6-0---6-0-1-2-3-4-5-----|
p.m......

  Repeat Riff 1 8x
D#|--------|
A#|--------|
F#|--------|
C#|-0------|
G#|-0------|
C#|-0------|
Suggest correction
Give kudos to tab author, rate the tab!
1 2 3 4 5
comments
print report bad tab
guest
You may want to rate the tab now too:
select rating
Wanna post a correction for this tab? Suggest correction