Oops, an error
Loading. Please wait.

Click Tab

version 1
version 1

Whole song

Interactive

10 views 1 this week
no commentswrite comment
1 2 3 4 5
3 more votes to show rating
add to favorites
launch autoscroll
font size
0
reset
how to read this tab
guitar tuner
Autoscroll
slow
fast
+/-
esc
set tempo
stop
Help us to improve Ultimate-Guitar.com Take our survey!
×
Author
Difficulty
Ultraspank - Click

Standard tuning- time 2/4

~=vibrato listen to the song for better timing.

[INTRO] 4x
e|----------------------------------------------------------------|
B|----------------------------------------------------------------|
G|----------------------------------------------------------------|
D|--10-10----8-8/10-10~----10-10/11-1110-/8-10----6~----3~--------|
A|--10-10----8-8/10-10~----10-10/11-1110-/8-10----6~----3~--------|
E|---8--8----6-6/-8--8~-----8--8/-9--9-8-/6--8----4~----1~--------|

[Verse 1]
e|------------------------------------------------------|
B|------------------------------------------------------|
G|------------------------------------------------------|
D|--10~~-------10--10--6--8--10---------10--10--6--8----|
A|--10~~-------10--10--6--8--10---------10--10--6--8----|
E|---8~~--------8---8--4--6---8----------8---8--4--6----|

e|----------------------------------------------|
B|----------------------------------------------|
G|----------------------------------------------|
D|--10-10/11-1110-----10-10/11-1110-/8-10-------|
A|--10-10/11-1110-----10-10/11-1110-/8-10-------|
E|---8--8/-9--9-8------8--8/-9--9-8-/6--8-------|

[Verse 2]
e|--------------------------------------|
B|--------------------------------------|
G|--------------------------------------|
D|--10~~-------10--10--6--8--10----10~--|
A|--10~~-------10--10--6--8--10----10~--|
E|---8~~--------8---8--4--6---8-----8~--|

[CHORUS] 4x
e|---------------------------------------------------------------|
B|---------------------------------------------------------------|
G|---------------------------------------------------------------|
D|--10-10----8-8/10-10----10-10/11-1110-/8-10----6~----3~--------|
A|--10-10----8-8/10-10----10-10/11-1110-/8-10----6~----3~--------|
E|---8--8----6-6/-8--8-----8--8/-9--9-8-/6--8----4~----1~--------|

[Bridge]
e|--------------------------------------|
B|--------------------------------------|
G|--------------------------------------|
D|--10-----6--8---6--5---6--8----10~~---|
A|--10-----6--8---6--5---6--8----10~~---|
E|---8-----4--6---4--3---4--6-----8~~---|

[CHORUS/OUTRO] 3x
e|----------------------------------------------------------------|
B|----------------------------------------------------------------|
G|----------------------------------------------------------------|
D|--6~----3~-----10-10----8-8/10-10~----10-10/11-1110-/8-10-------|
A|--6~----3~-----10-10----8-8/10-10~----10-10/11-1110-/8-10-------|
E|--4~----1~------8--8----6-6/-8--8~-----8--8/-9--9-8-/6--8-------|

e|--------------|
B|--------------|
G|--------------|
D|--6~----3~----|
A|--6~----3~----|
E|--4~----1~----|

 4x
e|---------------------------------------------------------------------|
B|---------------------------------------------------------------------|
G|---------------------------------------------------------------------|
D|--10-10----8-8/10-10~----10-10/11-1110-/8-10----6~----3~---3~--------|
A|--10-10----8-8/10-10~----10-10/11-1110-/8-10----6~----3~---3~--------|
E|---8--8----6-6/-8--8~-----8--8/-9--9-8-/6--8----4~----1~---1~--------|


************************************

| /  Slide up
| ~  Vibrato

************************************
Suggest correction
Give kudos to tab author, rate the tab!
1 2 3 4 5
comments
print report bad tab
guest
You may want to rate the tab now too:
select rating
Wanna post a correction for this tab? Suggest correction