Oops, an error
Loading. Please wait.

Five Tab

version 1
version 1

Whole song

Interactive

19 views 1 this week
no commentswrite comment
1 2 3 4 5
3 more votes to show rating
add to favorites
launch autoscroll
font size
0
reset
how to read this tab
guitar tuner
Autoscroll
slow
fast
+/-
esc
set tempo
stop
Help us to improve Ultimate-Guitar.com Take our survey!
×
Author
Difficulty
Tuning
novice
C# G# C# F# A# D#
"5" - Ultraspank
Tuning - Db Ab Db Gb Bb Eb (Drop Db)
4/4 timing

[Intro]
  (drums) 
D#|---|---|------------------|------------------------|
A#|---|---|------------------|------------------------|
F#|---|---|------------------|------------------------|
C#|---|---|------------------|------------------------|
G#|---|---|-0-1-4-3----------|-0-1-4-3-------x-(12)--|
C#|---|---|-0-1-4-3----------|-0-1-4-3-------x-(12)--|
p.m..... p.m....

  Riff 1 - [Chorus]
D#|------------------------------|------------------------------|
A#|------------------------------|------------------------------|
F#|--------------------11--11-11-|--------------------11--11-11-|
C#|-4-3--3-3--3-4-3--3-9---9--9--|-4-3--3-3--3-4-3--3-9---9--9--|
G#|-4-3--3-3--3-4-3--3-9---9--9--|-4-3--3-3--3-4-3--3-9---9--9--|
C#|-4-3--3-3--3-4-3--3-9---9--9--|-4-3--3-3--3-4-3--3-9---9--9--|

  (end Riff 1)
D#|------------------------------|--------------------------------|
A#|------------------------------|--------------------------------|
F#|--------------------11--11-11-|-----------11-11-10--10-108-8--|
C#|-4-3--3-3--3-4-3--3-9---9--9--|-4-3--3-3--9--9--8---8--8 6-6--|
G#|-4-3--3-3--3-4-3--3-9---9--9--|-4-3--3-3--9--9--8---8--8 6-6--|
C#|-4-3--3-3--3-4-3--3-9---9--9--|-4-3--3-3--9--9--8---8--8 6-6--|

Repeat [Riff 1] 2x

  Riff 2 - [Verse]
D#|----------------|----------------|----------------|--------------|
A#|----------------|----------------|----------------|--------------|
F#|----------------|----------------|----------------|--------------|
C#|----------------|----------------|----------------|--------------|
G#|-3-------1-1--1-|-3-------1-1--1-|-3-------1-1--1-|-3-------1-3--|
C#|-3-------1-1--1-|-3-------1-1--1-|-3-------1-1--1-|-3-------1-3--|
p.m..............................................................

D#|--------------------------------|--------------------------------|
A#|--------------------------------|--------------------------------|
F#|--------------------------------|--------------------------------|
C#|--------------------------------|--------------------------------|
G#|-3-4-3-0-1-3--3--4-3-0-1-3-1-3--|-3-4-3-0-1-3--3--4-3-0-1----1-3-|
C#|-3-4-3-0-1-3--3--4-3-0-1-3-1-3--|-3-4-3-0-1-3--3--4-3-0-1----1-3-|
p.m...............................................................

D#|--------------------------------|--------------------------------|
A#|--------------------------------|--------------------------------|
F#|--------------------------------|--------------------------------|
C#|--------------------------------|--------------------------------|
G#|-3-4-3-0-1-3--3--4-3-0-1-3-1-3--|-3-4-3-0-1-3--3--4-3-0-1----1-3-|
C#|-3-4-3-0-1-3--3--4-3-0-1-3-1-3--|-3-4-3-0-1-3--3--4-3-0-1----1-3-|
p.m.......................................................

D#|--------------------------------|--------------------------------|
A#|--------------------------------|--------------------------------|
F#|--------------------------------|--------------------------------|
C#|-3-4-3-0-1-3--3--4-3-0-1-3-1-3--|-3-4-3-0-1-3--3--4-3-0-1----1-3-|
G#|-3-4-3-0-1-3--3--4-3-0-1-3-1-3--|-3-4-3-0-1-3--3--4-3-0-1----1-3-|
C#|-3-4-3-0-1-3--3--4-3-0-1-3-1-3--|-3-4-3-0-1-3--3--4-3-0-1----1-3-|

  "Five!" (end Riff 2)
D#|--------------------------------|--------------------------------|
A#|--------------------------------|--------------------------------|
F#|--------------------------------|--------------------------------|
C#|-3-4-3-0-1-3--3--4-3-0-1-3-1-3--|-3-4-3-0-1-3--3-----------------|
G#|-3-4-3-0-1-3--3--4-3-0-1-3-1-3--|-3-4-3-0-1-3--3-----------------|
C#|-3-4-3-0-1-3--3--4-3-0-1-3-1-3--|-3-4-3-0-1-3--3-----------------|

Repeat [Riff 1]

D#|---------|---------|------------|------------|
A#|---------|---------|------------|------------|
F#|---------|---------|------------|------------|
C#|-3-------|-(3)-----|------------|------------|
G#|-3-------|-(3)-----|-0-1-4-3----|-0-1-4-3----|
C#|-3-------|-(3)-----|-0-1-4-3----|-0-1-4-3----|
p.m...................

Repeat Riff 2
Repeat Riff 1 2x

[Interlude]
  Gtr 1 (Riff 3) - clean tone 8x
D#|-----------------------|-------------------------|
A#|-6--6--6-6--6--6-6--6--|-7--7--7--7-7-3--3--3--3-|
F#|-5--5--5-5--5--5-5--5--|-6--6--6--6-6-2--2--2--2-|
C#|-3--3--3-3--3--3-3--3--|-4--4--4--4-4-0--0--0--0-|
G#|-3--3--3-3--3--3-3--3--|-4--4--4--4-4-0--0--0--0-|
C#|-3--3--3-3--3--3-3--3--|-4--4--4--4-4-0--0--0--0-|
| | |
|Gtr 2 (synth) | 8x|
D#|-13--------------------|-11---------------------|
A#|-----------------------|--------------12---------|
F#|-----------------------|-------------------------|
C#|-----------------------|-------------------------|
G#|-----------------------|-------------------------|
C#|-----------------------|-------------------------|
| | |
|Gtr 3 dist | (fade out after once)
D#|-----------------------|-------------------------|
A#|-----------------------|-------------------------|
F#|-----------------------|-------------------------|
C#|-3---------------------|-4------------0----------|
G#|-3---------------------|-4------------0----------|
C#|-3---------------------|-4------------0----------|

  W/Riff 3 4x
  Gtr 3 4x
D#|-----------------------|-------------------------|
A#|-----------------------|-------------------------|
F#|-----------------------|-------------------------|
C#|-3---------------------|-/6----------------------|
G#|-----------------------|---------------5---------|
C#|-----------------------|-------------------------|

  Both Gtrs with dist
D#|-----------------------|-------------------------|
A#|-----------------------|-------------------------|
F#|-----------------------|-------------------------|
C#|-3--3--3-3--3--3-3--3--|-4---4-------------------|
G#|-3--3--3-3--3--3-3--3--|-4---4---0-0-0-0-0-0-0-0-|
C#|-3--3--3-3--3--3-3--3--|-4---4---0-0-0-0-0-0-0-0-|
p.m............

  "Five!"
D#|-----------------------|-------------------------|
A#|-----------------------|-------------------------|
F#|-----------------------|-------------------------|
C#|-3--3--3-3--3--3-3--3--|-4---4---0---------------|
G#|-3--3--3-3--3--3-3--3--|-4---4---0---------------|
C#|-3--3--3-3--3--3-3--3--|-4---4---0---------------|

Repeat [Riff 1] 3x

  w/Riff 3 4x
  Gtr w/dist 3x
D#|----------------------|----------------------|
A#|----------------------|----------------------|
F#|----------------------|----------------------|
C#|--3-------------------|--4----------0--------|
G#|--3-------------------|--4----------0--------|
C#|--3-------------------|--4----------0--------|

D#|----------------------|----------------------|
A#|----------------------|----------------------|
F#|----------------------|----------------------|
C#|--3-------------------|--4----------0----0---|
G#|--3-------------------|--4----------0----0---|
C#|--3-------------------|--4----------0----0---|



************************************

| x    Dead note
| (n)  Ghost note
| /    Slide up

************************************
Suggest correction
Give kudos to tab author, rate the tab!
1 2 3 4 5
comments
print report bad tab
guest
You may want to rate the tab now too:
select rating
Wanna post a correction for this tab? Suggest correction