Oops, an error
Loading. Please wait.

Left Tab

1 view 1 this week
no commentswrite comment
1 2 3 4 5
3 more votes to show rating
add to favorites
launch autoscroll
font size
0
reset
how to read this tab
guitar tuner
Autoscroll
slow
fast
+/-
esc
set tempo
stop
Help us to improve Ultimate-Guitar.com Take our survey!
×
Author
Difficulty
Tuning
novice
C# G# C# F# A# D#
----------------------------------------------------------------------------------------------

             SONG: Left
             BAND: Ultraspank
            ALBUM: Progress

 ----------------------------------------------------------------------------------------------

        TUNING: drop d and down half a step (Db,Ab,Db,Gb,Bb,Eb)


[Intro]
   D#|--------------------------------|
   A#|--------------------------------|
   F#|--------------------------------| 
   C#|--------------------------------|
   G#|--------------------------------|
   C#|--2-2-0-2-5-2-0-2--2-0-2-5-2-0--|

   D#|---------------------------------------------------------------|
   A#|---------------------------------------------------------------|
   F#|---------------------------------------------------------------|  
   C#|--3-2-X-2--0-2-3-2-0-2--5-5-5-5h8-8-8-8s7-7-7-7s5-5-5-5h8-8-8--|
   G#|--3-2-X-2--0-2-3-2-0-2--5-5-5-5h8-8-8-8s7-7-7-7s5-5-5-5h8-8-8--|
   C#|--3-2-X-2--0-2-3-2-0-2--5-5-5-5h8-8-8-8s7-7-7-7s5-5-5-5h8-8-8--|

   D#|---------------------------------------------------------------|
   A#|---------------------------------------------------------------|  
   F#|---------------------------------------------------------------|
   C#|--0-2-0h2-0-2-3-2-0-2--5-5-5-5s4-4-4-4h7-7-7-7s-5-5-5-5h8-8-8--|
   G#|--0-2-0h2-0-2-3-2-0-2--5-5-5-5s4-4-4-4h7-7-7-7s-5-5-5-5h8-8-8--|
   C#|--0-2-0h2-0-2-3-2-0-2--5-5-5-5s4-4-4-4h7-7-7-7s-5-5-5-5h8-8-8--|

[Verse]
   D#|-------0---------0-----0---------0--|
   A#|-----------3---0-----------3---0----|
   F#|-----3---3---3-------3---3---3------|
   C#|--2---------------2-----------------|
   G#|------------------------------------|
   C#|------------------------------------|

[Interlude]
   D#|----------------------------------------|
   A#|----------------------------------------|
   F#|----------------------------------------|
   C#|--2----4----5----7----2----4----5----7--| 
   G#|--2----4----5----7----2----4----5----7--|
   C#|--2----4----5----7----2----4----5----7--|

[Chorus]
   D#|---------------------------------------------------------------|
   A#|---------------------------------------------------------------|
   F#|---------------------------------------------------------------|
   C#|--3-2-X-2--0-2-3-2-0-2--5-5-5-5h8-8-8-8s7-7-7-7s5-5-5-5h8-8-8--|
   G#|--3-2-X-2--0-2-3-2-0-2--5-5-5-5h8-8-8-8s7-7-7-7s5-5-5-5h8-8-8--|
   C#|--3-2-X-2--0-2-3-2-0-2--5-5-5-5h8-8-8-8s7-7-7-7s5-5-5-5h8-8-8--|

   D#|---------------------------------------------------------------|
   A#|---------------------------------------------------------------|
   F#|---------------------------------------------------------------|
   C#|--0-2-0h2-0-2-3-2-0-2--5-5-5-5s4-4-4-4h7-7-7-7s-5-5-5-5h8-8-8--|
   G#|--0-2-0h2-0-2-3-2-0-2--5-5-5-5s4-4-4-4h7-7-7-7s-5-5-5-5h8-8-8--|
   C#|--0-2-0h2-0-2-3-2-0-2--5-5-5-5s4-4-4-4h7-7-7-7s-5-5-5-5h8-8-8--|

   D#|---------------------------------------------------------------|
   A#|---------------------------------------------------------------|
   F#|---------------------------------------------------------------|
   C#|--3-2-2-0-2-3-2-0-2--------------------------------------------|
   G#|--3-2-2-0-2-3-2-0-2--------------------------------------------|
   C#|--3-2-2-0-2-3-2-0-2--------------------------------------------|



************************************

| h  Hammer-on
| s  Slide
| X  Dead note

************************************
Suggest correction
Give kudos to tab author, rate the tab!
1 2 3 4 5
comments
print report bad tab
guest
You may want to rate the tab now too:
select rating
Wanna post a correction for this tab? Suggest correction