Oops, an error
Loading. Please wait.

Suck Tab

7 views 1 this week
no commentswrite comment
1 2 3 4 5
3 more votes to show rating
add to favorites
launch autoscroll
font size
0
reset
how to read this tab
guitar tuner
Autoscroll
slow
fast
+/-
esc
set tempo
stop
Help us to improve Ultimate-Guitar.com Take our survey!
×
Author
Difficulty
Tuning
novice
C# G# C# F# A# D#
"Suck" - Ultraspank
Tuning - Db Ab Db Gb Bb Eb (Drop Db)
4/4 - Timing


[Intro]

  4x
D#|-------|-------------|-------------|-------------|-------------|
A#|-------|-------------|-------------|-------------|-------------|
F#|-bass--|-------------|-------------|-------------|-------------|
C#|--and--|-x\\\\\\\\\\\\\\\\\\\\\\\\\\-|
G#|-drums-|-x\\\\\\\\\\\\\\\\\\\\\\\\\\-|
C#|-------|-------------|-------------|-------------|-------------|

  "an icy grip...."
D#|-------|---------|---------|---------|
A#|-------|---------|---------|---------|
F#|-------|---------|---------|---------|
C#|-------|---------|---------|---------|
G#|-------|---------|---------|---------|
C#|-0-----|-(0)-----|-(0)-----|-(0)-----|

  2x
D#|--------------------------|--------------------|
A#|--------------------------|--------------------|
F#|------------10h11p10p0-11-|-(11)---------------|
C#|-11h12p11p0---------------|--------------------| 
G#|--------------------------|--------------------| 
C#|--------------------------|--------------------|

D#|--------------------------------------------------|
A#|--------------------------------------------------|
F#|------------10h11p10p0-11-------------------------|
C#|-11h12p11p0------------------12-11-10-------------| 
G#|--------------------------------------12-11-10----| 
C#|-----------------------------------------------12-|

D#|---------------------------|---------------------------|
A#|---------------------------|---------------------------|
F#|------------10h11p10p0-11--|-(11)-------(11)b1/2-------|
C#|-11h12p11p0----------------|---------------------------|
G#|---------------------------|---------------------------|
C#|---------------------------|---------------------------|

D#|--------|--------|
A#|--------|--------|
F#|--------|--------|
C#|--------|--------|
G#|--------|--------|
C#|-0------|-(0)----|

  Riff 1 Gtr 1 3x (end Riff 1)
D#|--------------------------------------------------|---------------------------|
A#|--------------------------------------------------|---------------------------|
F#|------------10h11p10p0-11-------------------------|------------10h11p10p0-11--|
C#|-11h12p11p0------------------12-11-10-------------|-11h12p11p0----------------|
G#|--------------------------------------12-11-10----|---------------------------|
C#|-----------------------------------------------12-|---------------------------|
| p.m..................| |
|Riff 1A Gtr 2 3x| (end Riff 1A)
D#|--------------------------------------------------|---------------------------|
A#|--------------------------------------------------|---------------------------|
F#|--------------------------------------------------|---------------------------|
C#|------------3h4p3p0---3---------------------------|-------------3h4p3p0----3--|
G#|--4h5p4p0---------------------5--4--3--0----------|---4h5p4p0-----------------|
C#|------------------------------------------6--5--0-|---------------------------|
p.m................


  Riff 2 - Chorus 
D#|----------------------|--------------------|----------------------|--------------------|
A#|----------------------|--------------------|----------------------|--------------------|
F#|-7---7---8----8-8--8--|--5-5-5-5---5-7--7--|-7---7---8----8-8--8--|--5-5-5-5---5-7--7--|
C#|-4---4---5----5-5--5--|--5-5-5-5---5-7--7--|-4---4---5----5-5--5--|--5-5-5-5---5-7--7--|
G#|-5---5---6----6-6--6--|--3-3-3-3---3-5--5--|-5---5---6----6-6--6--|--3-3-3-3---3-5--5--|
C#|-0--------------------|--------------------|-0--------------------|--------------------|

  (end Riff 2)
D#|----------------------|----------------------|----------------------|--------------------|
A#|----------------------|----------------------|----------------------|--------------------|
F#|-7---7-8---8----------|-7---7-8---8----------|-7---7-8---8----------|--5-5-5-5---5-7--7--|
C#|-4---4-5---5----------|-4---4-5---5----------|-4---4-5---5----------|--5-5-5-5---5-7--7--|
G#|-5---5-6---6--5-4-3-0-|-5---5-6---6--5-4-3-0-|-5---5-6---6--5-4-3-0-|--3-3-3-3---3-5--5--|
C#|--------------5-4-3-0-|--------------5-4-3-0-|--------------5-4-3-0-|--------------------|
p.m.... pm..... p.m.....|


D#|--------|--------|--------|--------|
A#|--------|--------|--------|--------|
F#|--------|--------|--------|--------|
C#|--------|--------|--------|--------|
G#|-0------|-(0)----|-(0)----|-(0)----|
C#|-0------|-(0)----|-(0)----|-(0)----|

  4x
D#|---|
A#|-r-|
F#|-e-|
C#|-s-|
G#|-t-|
C#|---|

  Gtr 1
D#|---------15--14----|-(14)-------------|---------15--14b1/2|(14)r(14)b1/2-r(14)--|
A#|-14--15------------|------------------|-14--15------------|---------------------|
F#|-------------------|------------------|-------------------|---------------------|
C#|-------------------|------------------|-------------------|---------------------|
G#|-------------------|------------------|-------------------|---------------------|
C#|-------------------|------------------|-------------------|---------------------|
| | | | |
|Gtr 2 | | | |
D#|-------------------|------------------|-------------------|---------------------|
A#|-------------------|------------------|-------------------|---------------------|
F#|-------------------|------------------|-------------------|-7-------------------|
C#|-------------------|------------------|-------------------|-4-------------------|
G#|-0-0---------------|-0-0------0--0--0-|-0-0---------------|-5-------------------|
C#|-0-0---------------|-0-0------0--0--0-|-0-0---------------|-0-------------------|
p.m. p.m....................


Repeat Riff 1 & 1A
Repeat Riff 2

  2nd chorus
D#|------------------|
A#|-6--6-6---6-6-----|
F#|-5--5-5---5-5-----|
C#|-3--3-3---3-3-----|
G#|-3--3-3---3-3-----|
C#|-3--3-3---3-3-----|

  Riff 3 4x
D#|------------------------|
A#|------------------------|
F#|------------------------|
C#|-0-0---0-0---0-3--3--/7-|
G#|-0-0---0-0---0-3--3--/7-|
C#|-0-0---0-0---0-3--3--/7-|

  4x
D#|---------------------------|
A#|---------------------------|
F#|---------------------------|
C#|----------------0-3--3--/7-|
G#|-0-0--0-0--0-0--0-3--3--/7-|
C#|-0-0--0-0--0-0--0-3--3--/7-|
p.m...........

  Repeat Riff 3 3x then
D#|-----------------------|
A#|-----------------------|
F#|-----------------------|
C#|-0-0---0-0-------------|
G#|-0-0---0-0-------------|
C#|-0-0---0-0-------------|

  Repeat Riff 2
  2nd Chorus
  Repeat Riff 3 3x then
D#|-----------------------|
A#|-----------------------|
F#|-----------------------|
C#|-0-0---0-0-------------|
G#|-0-0---0-0-------------|
C#|-0-0---0-0-------------|



************************************

| x    Dead note
| (n)  Ghost note
| h    Hammer-on
| p    Pull-off
| r    Release
| t    Tapping
| b    Bend
| /    Slide up
| s    slide

************************************
Suggest correction
Give kudos to tab author, rate the tab!
1 2 3 4 5
comments
print report bad tab
guest
You may want to rate the tab now too:
select rating
Wanna post a correction for this tab? Suggest correction