Oops, an error
Loading. Please wait.

Hiertets Vee Tab

version 1
version 1

Whole song

Interactive

by Ulver
2,401 views 6 this week
no commentswrite comment
1 2 3 4 5
2 more votes to show rating
add to favorites
launch autoscroll
font size
0
reset
how to read this tab
guitar tuner
×
Best way to learn
"Hiertets Vee"
Autoscroll
slow
fast
+/-
esc
set tempo
stop
Here are some ulver tabs from the album KVELDSSANGER:


ULVER  - HIERTETS VEE


INTRO (GTR 1 + 2)
		REPEAT 1X			REPEAT 1X
E |-------------------------------------------
|-----------------------------------------------	|
B |------------------------------------------
|-----------1------------0-------------0-----	|	
G |-----------0---------0----------0-------
|-------2------------2-------------2---------	|
D |-------2----------2----------2-----------
|-----------------------------------	-----------	|
A |-------------------------------------------
|---0------------------------------------------	|
E |--0-----------2----------3---------------
|----------------3-------------1--------------	|


	RIFF 2 (GTR 1)

	E	|----------------------------------------------	|
	B	|-----------3------------3---------3---------	|
	G	|-------2-----------2----------2-------------	|
	D	|---0-----------2-----------3----------------	|
	A	|----------------------------------------------	|
	E	|----------------------------------------------	|


	RIFF 2 (GTR 2)

	E	|-----------------------------------------------
|
	B	|-----------------------------------------------
|
	G	|-----------------------------------------------
|
	D	|----7---5------5----------------------------	|
	A	|-------------8-----8--7--8--7--5----------	|
	E	|----------------------------------------------	|


	RIFF 3 (GTR 1 + 2)
				REPEAT 1X
REPEAT 1X	
	E
|-----------------------------------------------|-----------------------
------------------------------------	|
	B
|----------3---------3---------3--------------|---------5-----------5---
-----5-------------------------	|
	G
|------3---------3----------3-----------------|------5-----------5------
--5-----------------------------|
	D
|--5----------0----------1--------------------|---7---------------------
---------------------------------	|
	A	|-----------------------------------------------
|--------------7---------8--------------------------------	|
	E	|-----------------------------------------------
|-----------------------------------------------------------	|


	THATS THE SONG, AND THERES ANOTHER ONE ON THE WAY (HALLING), SO
	I´D BETTER BE RUNNING NOW. CHEERS !!

	BO PEDERSEN
> -----Oprindelig meddelelse-----
> Fra:	 [SMTP:]
> Sendt:	3. december 1997 22:01
> Til:	Bo Meyhoff Guldal Pedersen
> Emne:	Re: your mail
> 
> Hehehe, check out my webpage dude, and scroll down until you see the
> click
> here thing, on the last newsletter there is Dead Eternity.  
>
Suggest correction
Give kudos to tab author, rate the tab!
1 2 3 4 5
comments
print report bad tab
guest
You may want to rate the tab now too:
select rating
Wanna post a correction for this tab? Suggest correction