Oops, an error
Loading. Please wait.

Sofu Or Paa Allfers Lund Tab

2,606 views 6 this week
no commentswrite comment
1 2 3 4 5
x 3
add to favorites
launch autoscroll
font size
0
reset
how to read this tab
guitar tuner
×
Best way to learn
"Sofu Or Paa Allfers Lund"
Autoscroll
slow
fast
+/-
esc
set tempo
stop
 U    L    V    E    R
SØFU-ØR PAA ALLFERS LUND
>From Kveldssanger
TAB'd by Baughb Matcuk
(rkm150@psu.edu)
http://www.personal.psu.edu/rkm150/

Standard tuning, 3 acoustical guitars. Listen for timing. This sounds
relatively right... Comments and suggestions are welcome, of course.

Riff 1 - Gtr 1
|-0---0-3-2-------0---0-2---0---0---0-3-2-------0---0-2---0---/8---
|---0---------0-4---------4-------0---------0-4---------4----------
|-----------2-----------------------------2------------------------
|------------------------------------------------------------------
|------------------------------------------------------------------
|------------------------------------------------------------------

-7-5-3---7-7-3-3-0-3---3-5-5-3-3-2-2---2h3p2-0---0---0-2---0---|
-----------------------------------------------4---------4-----|
---------------------------------------------------------------|
---------------------------------------------------------------|
---------------------------------------------------------------|
---------------------------------------------------------------|

Riff 1 - gtr 2 (comes in on second repeat)
|-----------------------------------------------------------------
|-----------------------------------------------------------------
|-----0-2-----0-----------------------0-2-----0-------------------
|-----------4---4-----2-------2-------------4---4-----2-------2---
|---2-----2---------2-------2---2---2-----2---------2-------2---2-
|-0---------------0-----3-0-------0---------------0-----3-0-------

                                                  *
--------------------------------------------------------------|
--------------------------------------------------------------|
-----2-------0-----------------------0-------0----------------|
---2---2---0---0-----2-------2-----4---4---4---4------2-------|
-0-----------------2-------2---2-2-------2----------2---------|
---------3-------0-----3-0------------------------0-----3-0---|

Riff 1 - gtr 3 (comes in on third repeat)
|-0-2-3-3-2---2---0----------0-2-3-3-2---2---0----------7-5-3---7-7-
|---------------4--------------------------4------------------------
|-------------------------------------------------------------------
|-------------------------------------------------------------------
|-------------------------------------------------------------------
|-------------------------------------------------------------------

-3-3-0-3---------3-3-2-2-|
-------------------------|
-------------------------|
-------------------------|
-------------------------|
-------------------------|

Riff 1 is played a total of 4 times.

Riff 2 - gtr 1 (gtr 2 plays riff 1)
|-0-0-2---0---0-3-5-7-3-2-3---0-0-2---0---------------------------0-
|--4----4---0------------------4----4---0-1-0---0---1-0---0-----1---
|---------------------------------------------2---------2-----2-----
|-------------------------------------------------------------------
|-------------------------------------------------------------------
|-------------------------------------------------------------------

-3-5-8-7--5-3--5-0---0-0---0-2---2h3---2---0---|
-------------------------4---------------------|
-----------------------------------------------|
-----------------------------------------------|
-----------------------------------------------|
-----------------------------------------------|

Outro - gtr 1 (played at the * instead of the end of riff 1)
|-------------|
|-------------|
|-----0-------|
|-------4-2---|
|---2---------|
|-0-----------|
Suggest correction
Give kudos to tab author, rate the tab!
1 2 3 4 5
comments
print report bad tab
guest
You may want to rate the tab now too:
select rating
Wanna post a correction for this tab? Suggest correction