Oops, an error
Loading. Please wait.

Wolf And Man tab

by Ulver
1,527 views 1 this week
2 commentsread comments
1 2 3 4 5
2 more votes to show rating
add to favorites
×
Save as Personal and add changes to this tab that will be seen only by you. Learn more ›
×
You can save this tab as Personal to edit and correct it or add notes. All changes will be seen only by you. Learn more »
launch autoscroll
font size
0
reset
how to read this tab
guitar tuner
edit
Autoscroll
slow
fast
+/-
esc
set tempo
stop
#----------------------------------PLEASE NOTE--------------------------------------------#
#This file is the author's own work and represents their interpretation of the #
#song. You may only use this file for private study, scholarship, or research#
#---------------------------------------------------------------------------------------------#

Band   Ulver
Album: Nattens Madrigal - Aatte Hymne til Ulven i Manden
Song:  Hymne IV - Wolf and Man

Copyright (c)  Century Media
Version 1.0 - 9/11/2007

Transcribed By: Elathen
Email:           ningalia87@yahoo.com


.  - palm mute           /  - slide up to
\  - slide down to       ~  - vibrato
h  - hammer on           b  - Bend
p  - pull off            Suffixes for bend
t  - tap                 f  - full bend    h - half bend
ph - pinched harmonic    q  - quarter bend t - tap bend
*  - see comment         ^  - Hold bend    r release bend
x  - Stuccatto           ~  - vibrato bend
,  - slight palm mute    () - ghost note, sustained note
"  - tremolo note        <> - Trill

Tuning E A D G B E

Note:
This is the weird intro part i couldn't tab,sorry.

Riff 1
|-----------------------------------------------------------|
|-----------------------------------------------------------|
|-----------------------------------------------------------|
|-------------2---4---2----1--------------------------------|  gtr 1
|---3---2-------------------------3----2--------------------|
|-----------------------------------------------------------|

|-----------------------------------------------------------|
|-----------------------------------------------------------|
|-----------------------------------------------------------|
|----5-------5-------6-------3------------------------------|  gtr 2
|----5-------5-------6-------3------------------------------|
|----3-------3-------4-------1------------------------------|

Riff 2                                  Riff 2b
|---------------------------------------|-------------------------------------------------------|
|---8"-----9"----8"------9"-------------|----8"----6"---4"----4"----1"---3"--4"-----------------|
|---5"-----5"----5"------5"-------------|----5"----5"---3"----5"----2"---2"--2"-----------------|
|---------------------------------------|-------------------------------------------------------|
|---------------------------------------|-------------------------------------------------------|
|---------------------------------------|-------------------------------------------------------|

Riff 3
|--------------------------------------------------------------------|
|---7"-----5"----3"-----1"-------------------------------------------|
|---4"-----4"----4"-----2"----3"----4"---5"----4"--------------------|
|-----------------------------4"----5"---6"----5"--------------------|
|--------------------------------------------------------------------|
|--------------------------------------------------------------------|

Riff 4                                                       Riff 4b
|-----------------------------------------------------------|--------------------------|
|-----------------------------------------------------------|--------------------------|
|-----------------------------------------------------------|--------------------------|
|---9"----5"---7"----4"----4"---5"--------------------------|---9-"----10"-------------|
|---7"----7"---7"----6"----5"---7"--------------------------|---7"------7"-------------|
|-----------------------------------------------------------|--------------------------|

Riff 5 - Fill
|-----------------------------------------------------------|
|--10h12--11h13---10h12---9h10------------------------------|
|-----------------------------------------------------------|
|-----------------------------------------------------------| gtr 1
|-----------------------------------------------------------|
|-----------------------------------------------------------|

|-----------------------------------------------------------|
|-----------------------------------------------------------|
|-----------------------------------------------------------|
|--9"----7"----5"-----5"-----2"----4"-----5"----------------| gtr 2
|--6"----6"----4"-----6"-----3"----3"-----3"----------------|
|-----------------------------------------------------------|

Riff 6 - Outro
|-----------------------------------------------------------|
|--8"-----6"-----4"-----------------------------------------|
|--7"-----7"-----6"---------7"------------------------------|
|---------------------------5"------------------------------|
|-----------------------------------------------------------|
|-----------------------------------------------------------|

End.

            
            
Suggest correction
Creating personal tab
Creating personal tab
You can edit any tab online and save it as your Personal.

You can edit, replace or remove any tab part or add personal notes – all changes will be seen only by you.

Personal tabs can be accessed anytime from any device, even offline.
Learn more »
Give kudos to tab author, rate the tab!
1 2 3 4 5
comments
print report bad tab
2 comments total.
0 reply
Municipal Waste 50 Apr 16, 2011 01:36 PM

the intro should be

E-------------------------|
B-------------------------|
G-----0----------0--------|
D------3-1-0------3-1-0---|
A-3-3--------3-3----------|
E--3----------3-----------|

the rest is wrong, but some of it actually sounds ok when played.

0 reply
Municipal Waste 50 Apr 16, 2011 01:37 PM

whoops, lol.

E---------------------------|
B---------------------------|
G-----0------------0--------|
D------3-1-0-1------3-1-0-1-|
A-3-3----------3-3----------|
E--3------------3-----------|

guest
You may want to rate the tab now too:
select rating
Wanna post a correction for this tab? Suggest correction