Oops, an error
Loading. Please wait.

Enta Omri tab

11,148 views 21 this week
5 commentsread comments
1 2 3 4 5
x 3
add to favorites
×
Save as Personal and add changes to this tab that will be seen only by you. Learn more ›
×
You can save this tab as Personal to edit and correct it or add notes. All changes will be seen only by you. Learn more »
launch autoscroll
font size
0
reset
how to read this tab
guitar tuner
edit
Autoscroll
slow
fast
+/-
esc
set tempo
stop
Author
Attached is the guitar tablature for Um Kalthoom's famous song "Enta
Omry". She is a very well known classic Egyptian singer. Her tabs are
sought after by many, however very few websites offer this song fully
tabbed out.

Artist : UM Kalthoom
Song   : ENTA 3OMRY
Album  : Collection
Type   : Guitar Tabs
Tabber : Nadeem Muaddi (Nadeem1719@yahoo.com)
-----------------------------------------------

This song is tabbed on a six string acoustic guitar in standard tuning.
It includes the notes for both guitar & violin.

Notation:

/ Slide

b bend note
h Hammer on
p Pull off

Intro: Repeat 4x

E:-----------------12p11p9-11------------------------------------------------|
B:----------------------------12-10-9----------------------------------------|
G:---------------------------------------------------------------------------|
D:---------------------------------------------------------------------------|
A:-11------------------------------------------------------------------------|
E:----16-16-16-16------------------------------------------------------------|

Guitar Enters:

E:---------------------------------------------------------------------------|
B:---------------------------------------------------------------------------|
G:-8-9-9-8-8-8-9-9---6-8-8-6-6-6-8-8---4-6-6-4-8-6-8-4-2-1-------------------|
D:---------------------------------------------------------------------------|
A:---------------------------------------------------------------------------|
E:---------------------------------------------------------------------------|

Violin Enters:

E:---------------------------------------------------------------------------|
B:---------------------------------------------------------------------------|
G:---------------------------------------------------------------------------|
D:-----------------------6---------------------------------------------------|
A:-6-9-8---4-7-6---6-9-7---7-6-----------------------------------------------|
E:---------------------------------------------------------------------------|

The rest of the song continues with a series of turn exchanges between
the guitar and the violin.

E:---------------------------------------------------------------------------|
B:---------------------------------------------------------------------------|
G:-8-9-9-8-8-8-9-9-------6-8-8-6-6-6-8-8-------4-6-6-4-8-6-8-4-2-1-----------|
D:---------------------------------------------------------------------------|
A:-----------------6-7-9-----------------4-6-7-------------------------------|
E:---------------------------------------------------------------------------|

E:---------------------------------------------------------------------------|
B:-----------------------------------------------7/9-------------------------|
G:---------------------------------------------------------------------------|
D:-----------------------6---------------------------------------------------|
A:-6-9-8---4-7-6---6-9-7---7-6-7-9-11-12-11-9-11-----------------------------|
E:---------------------------------------------------------------------------|

E:---------------------------------------------------------------------------|
B:-------------------8/10----------------------------------------------------|
G:---------------------------------------------------------------------------|
D:----------11-9-8-9---------------------------------------------------------|
A:-6-7-9-11------------------------------------------------------------------|
E:---------------------------------------------------------------------------|

E:---------------------------------------------------------------------------|
B:---------------------------------------------------------------------------|
G:---------------------------------------------------------------------------|
D:---------------------------------------------------------------------------|
A:-6-7-9-11-12-12-11-9-11-6---12-12-11-9-11-6---12-12-11-9-8-9-11/16b--------|
E:---------------------------------------------------------------------------|

**These next 12 notes is what I need help with. If anyone can email me with
the exact notes, I'd really appreciate it. Thanks.

E:---------------------------------------------------------------------------|
B:---------------------------------------------------------------------------|
G:---------------------------------------------------------------------------|
D:---------------------------------------------------------------------------|
A:-16p13---15p11---13p9---11p8---10p6---8p5----------------------------------|
E:---------------------------------------------------------------------------|

E:---------------------------------------------------------------------------|
B:------------------9-7-10-9-------------------7-5-9-7-----------------------|
G:-8-9-9-8-8-8-9-11------------6-8-8-6-6-6-8-9-----------4-6-6-4-8-6-8-4-2-1-|
D:---------------------------------------------------------------------------|
A:---------------------------------------------------------------------------|
E:---------------------------------------------------------------------------|

E:---------------------------------------------------------------------------|
B:---------------------------------------------------------------------------|
G:---------------------------------------------------------------------------|
D:-----------------------6---------------------------------------------------|
A:-6-9-8---4-7-6---6-9-7---7-6-----------------------------------------------|
E:---------------------------------------------------------------------------|

E:---------------------------------------------------------------------------|
B:------------------9-7-10-9-------------------7-5-9-7-----------------------|
G:-8-9-9-8-8-8-9-11------------6-8-8-6-6-6-8-9-----------4-6-6-4-8-6-8-4-2-1-|
D:---------------------------------------------------------------------------|
A:---------------------------------------------------------------------------|
E:---------------------------------------------------------------------------|

E:---------------------------------------------------------------------------|
B:---------------------------------------------------------------------------|
G:---------------------------------------------------------------------------|
D:-----------------------6---------------------------------------------------|
A:-6-9-8---4-7-6---6-9-7---7-------------------------------------------------|
E:---------------------------------------------------------------------------|

E:---------------------------------------------------------------------------|
B:---------------------------------------------------------------------------|
G:---------------------------------------------------------------------------|
D:---------------------------------------------------------------------------|
A:---------------------------------------------------------------------------|
E:-11-12-12-11-11-11-12-12---9-11-11-9-9-9-11-11---7-9-9-7-11-9-11-7-5-4-----|

E:---------------------------------------------------------------------------|
B:---------------------------------------------------------------------------|
G:---------------------------------------------------------------------------|
D:-----------------------6---------------------------------------------------|
A:-6-9-8---4-7-6---6-9-7---7-------------------------------------------------|
E:---------------------------------------------------------------------------|

E:---------------------------------------------------------------------------|
B:---------------------------------------------------------------------------|
G:---------------------------------------------------------------------------|
D:---------------------------------------------------------------------------|
A:---------------------------------------------------------------------------|
E:-11-12-12-11-11-11-12-12---9-11-11-9-9-9-11-11---7-9-9-7-11-9-11-7-5-4-----|

Outro: Repeat 4x

E:------------      ------------|
B:------------      ------------|
G:------------  OR  ------------|
D:------------      ------------|
A:------------      -2-0-4------|
E:-7-5-9-4----      -------4----|


----------------------------------------------------|
----------------------------------------------------|

            
            
Suggest correction
Creating personal tab
Creating personal tab
You can edit any tab online and save it as your Personal.

You can edit, replace or remove any tab part or add personal notes – all changes will be seen only by you.

Personal tabs can be accessed anytime from any device, even offline.
Learn more »
Give kudos to tab author, rate the tab!
1 2 3 4 5
comments
print report bad tab
5 comments total. Showing first comments.
0 reply
majj.wabbi 10 Jul 30, 2013 12:59 PM

n1 gj :) best tab

+1 reply
fakerone18 10 Sep 16, 2013 02:04 AM

thats an easy 1

e|------------------------------------------0---1---0------|
B|--------------------------------1-3---1-3-------3---1----|
G|----0-2---0-2---3-0-----0-2---3-----------------------3-2|
D|----------------------4----------------------------------|
A|-0------0-----0-----0-------0-------0-------0------------|
E|---------------------------------------------------------|

e|---1---0-------------------------------------1---0-------|
B|-----3---1-------1-------------1---------------3---1-----|
G|-----------3-2-----2-0---0-2-----2-0---0-2-----------3-2-|
D|-----------------------4-------------4-------------------|
A|-0-------------0-------------0-------------0-------------|
E|---------------------------------------------------------|

e|---1---0---------1---0-----------------------------------|
B|-----3---1---------3---1-1-1-1---------------------------|
G|-----------3-2-----------------3-3-3-3-------------------|
D|---------------------------------------2-2-2-2-----------|
A|-0-------------0-----------------------------------------|
E|---------------------------------------------------------|

( ???? )

e|-----------1-0---0-----------------1-0---0---------------|
B|---------------3---1-------------------3---1-------------|
G|-0-2-2-2-2-----------3-2-0-2-2-2-2-----------3-2-0-2-2-2-|
D|---------------------------------------------------------|
A|---------------------------------------------------------|
E|---------------------------------------------------------|

( ????? )

e|---1-0---0-------0-1-1-0-0-0-1-1--0-0-------0-0---------0|
B|-------3---1---------------------3----3-3-3-----1-3-3-1--|
G|-2-----------3-2-----------------------------------------|
D|---------------------------------------------------------|
A|---------------------------------------------------------|
E|---------------------------------------------------------|


( ???? )
e|---0-------0-3-2---1-0---3-1-5-1-------------------------|
B|-3---1-----------3-----3---------------------------------|
G|-------3-2-------------------------------0-0-2-2-3-2-0-2-|
D|---------------------------------2-2-3-3-----------------|
A|---------------------------------------------------------|
E|---------------------------------------------------------|

e|---------------------------------------------------------|
B|-----------------3-1---1---------------------------------|
G|---------0-0-2-2-----3---3---------0-0-2-2-3-2-0-2-3-3-2-|
D|-2-2-3-3-------------------2-2-3-3----------------2------|
A|---------------------------------------------------------|
E|---------------------------------------------------------|

( ????? ) ( ???? )

e|------------------------0-----------------------1-1-0-0--|
B|---------------------3----1-3---1------------------------|
G|-0-2---3-3-2-0---2-3----------3---2-3-0-3---0------------|
D|-----2---------4--------------------------3---2----------|
A|---------------------------------------------------------|
E|---------------------------------------------------------|

( ???? )

e|-0-1-1---0-0-------0-0---------0---0------0-3-2---1-0---3|
B|-------3-----3-3-3-----1-3-3-1---3--1-----------3-----3--|
G| -------------------------------------3-2----------------|
D|---------------------------------------------------------|
A|---------------------------------------------------------|
E|---------------------------------------------------------|

( ????? )
e|-1-5-1--0-1-1-0-0-0-1-3-5-3-6-5---0-0-------0-1-3-2-5-3--|
B|--------------------------------3-----3-3-3--------------|
G|---------------------------------------------------------|
D|---------------------------------------------------------|
A|---------------------------------------------------------|
E|---------------------------------------------------------|

( ???? ) ?????
e|---------0---0------------------------------------------|
B|-1-3-3-1---3---1------1---3---1---3---1---3-------------|
G|-----------------3-2----3---2---3---2---3---2-----------|
D|--------------------------------------------------------|
A|--------------------------------------------------------|
E|--------------------------------------------------------|

0 reply
TassAzb 10 Jun 06, 2014 05:09 AM

That's the one I was looking for.. Thanks :)

guest
You may want to rate the tab now too:
select rating
Wanna post a correction for this tab? Suggest correction