Oops, an error
Loading. Please wait.

Domino Theory Bass Tab

588 views 1 this week
no commentswrite comment
1 2 3 4 5
3 more votes to show rating
add to favorites
launch autoscroll
font size
0
reset
guitar tuner
Autoscroll
slow
fast
+/-
esc
set tempo
stop
Help us to improve Ultimate-Guitar.com Take our survey!
×
Author
Difficulty
intermediate
-------------------------------------------------
Domino Theory - Umphrey's McGee (Death By Stereo)
-------------------------------------------------

E-mail: jordansummers226@gmail.com
Tuning: Standard (EADG)

Verse (0:00-0:30)
G|--------------------------------------|
D|--------------------------------------|
A|-----------11113--------------111113--|
E|-3333321--------1---3333321---------1-|

G|-------------------------------------|
D|-------------------------------------|
A|-----------11113--------------11113--|
E|-3333321--------1---3333321--------1-| 
  *watch out for timing in the verse… 

Pre-Chorus (0:30-0:41)
G|---------------------------------------------|
D|---------------------------------------------|
A|-------3321--6654------------3321--6654------|
E|-3321--------------1-2-3321--------------1-2-|

Chorus (0:40-0:56)
G|------------------|
D|------------------|
A|--------54-5-4-5--|
E|-3333333----3---5-| x3

G|------------------|
D|------------------|
A|--------54-5-4-5--|
E|-33--33-----3---5-| x1

Bass Solo (0:56-1:11)
G|----------------------------------|
D|----------------------8/12----12\-|
A|------3/8-8--8/13-13-------13-----|
E|-3-3------------------------------|

G|----------------------------------|
D|----------------------8/12----15\-|
A|------3/8-8--8/13-13-------13-----|
E|-3-3------------------------------|

G|----------------------------------|
D|----------------------8/12----12\-|
A|------3/8-8--8/13-13-------13-----|
E|-3-3------------------------------|

G|-------------17-15------------------------------------------|
D|-------------------17-15-17-15------------------------------|
A|------3/8-8--------------------17-15-17-15-13-12-13-12-10-9-|
E|-3-3--------------------------------------------------------|
  *the fast part at the end is really tricky

Verse (1:11-1:41)

Pre-Chorus (1:41-1:51)

Chorus (1:51-2:06)

Bass Solo (2:06-2:21)

Verse (2:21-2:51)

Pre-Chorus (2:51-3:12)

Chorus (3:12-3:46)
Suggest correction
Give kudos to tab author, rate the tab!
1 2 3 4 5
comments
print report bad tab
guest
You may want to rate the tab now too:
select rating
Wanna post a correction for this tab? Suggest correction