Oops, an error
Loading. Please wait.

Nemo tab

475 views 12 this week
no commentswrite comment
1 2 3 4 5
3 more votes to show rating
add to favorites
×
Save as Personal and add changes to this tab that will be seen only by you. Learn more ›
×
You can save this tab as Personal to edit and correct it or add notes. All changes will be seen only by you. Learn more »
launch autoscroll
font size
0
reset
how to read this tab
guitar tuner
edit
Autoscroll
slow
fast
+/-
esc
set tempo
stop
Author
Nemo
Umphrey's McGee

Thanks to Eric Sievers for originally tabbing this out. I reformatted and did some minor edits.

Use percussive, left hand muted string scrapes in between the notes here
(listen to the song for the exact timing with the verses)

[Riff 1]
e-------------2-2-----------------------------3-3----------------
B-------------3-3-----------------------------3-3----------------
G-------------2-2-----------------------------0-0----------------
D-----0-0-----0-0---------------------0-0-----0-0----------------
A-0-0-0-0-----0-0-----------------0-0-0-0-----2-2----------------
E-2-3-----------------------------2-3----------------------------
               
[Riff 2]
E-3--3--3--3------3--3--3--3-
B-3--3--3--3------3--3--3--3-
G-0--0--0--0------0--0--0--0-
D-2--2--0--0------0--0--0--2-
A-3--3--2--2------2--0--2--3-
E----------3------------3----

[Riff 3]
E-3--3--3------------------------------------------------------
B-3--3--3-------------3---5---5b6------------5--------------3--
G-0--0--0-------4-5--------------------------------------------
D-2--2--0------------------------------------------------------
A-3--3--2------------------------------------------------------
E-------3------------------------------------------------------


[Intro]
Riff 1

(Riff 1)
No assumption                   
should be worth listing
They belong with someone else
Set in motion what you're still missing
There will always be a need
You were always somewhere above me
Can't there be a way around this

(Riff 2)
When it's there you know you ought'a be the one to ride it through
And it's easy to stop before you start
When it's there you know you ought'a be the one to ride it through
And it's easy to stop before you start


Riff 3 x3

Dm C G/B


Bb           Am              Ebmaj7           G
There's only one more way to think about what everything could

Ebmaj7       Am     Bb   G
happen if it wasn't left unsaid

Bb        Am            Ebmaj7           G
And every time we seem aware of all that matters there will

Ebmaj7      Am     Bb  G
always be a memory you forget


{Solo over riff 1}


(Riff 1)
Be demanding 
if no one's listening
You will probably find an ear
Set in motion 
what you're still missing
There will always be a need
There has got to be a reason
Whose to say what priveledge means


(Riff 2)
When it's there you know you ought'a be the one to ride it through
And it's easy to stop before you start
When it's there you know you ought'a be the one to ride it through
And it's easy to stop before you start

Riff 3 x3

Dm C G/B

Bb         Am          Ebmaj7           G
The more I realize the things I've seen through these eyes
Ebmaj7               Am        Bb         G
There's only so much more that you could show
Bb      Am                  Ebmaj7         G
As many times as we've been there and back again no I don't
Ebmaj7          Am     Bb     G
Care if I'll be no one in the end
Bb      Am                  Ebmaj7         G
As many times as we've been there and back again no I don't
Ebmaj7          Am     Bb     G
Care if I'll be no one in the end



*Please rate and leave comments/corrections if needed*

            
            
Suggest correction
Creating personal tab
Creating personal tab
You can edit any tab online and save it as your Personal.

You can edit, replace or remove any tab part or add personal notes – all changes will be seen only by you.

Personal tabs can be accessed anytime from any device, even offline.
Learn more »
Give kudos to tab author, rate the tab!
1 2 3 4 5
comments
print report bad tab
guest
You may want to rate the tab now too:
select rating
Wanna post a correction for this tab? Suggest correction