Oops, an error
Loading. Please wait.

Walletsworth Bass Tab

version 2
version 2

Whole song

1,878 views 3 this week
no commentswrite comment
1 2 3 4 5
please rate
add to favorites
launch autoscroll
font size
0
reset
guitar tuner
Autoscroll
slow
fast
+/-
esc
set tempo
stop
Help us to improve Ultimate-Guitar.com Take our survey!
×
b-bend
h-hammer on
p-pull off
/-slide
()-Grace Note

Main Part/intro
G--------------------------------------------------|
D--------------------------------------------------|
A---5h7--7h9----10h12-9b---5h7---7h9----7-5-4b-----|
E-0-----0-----0----------0-----0------0------------|

Arpegio at end on intro
G-------------------7-6---------5-4------|
D-----------------6-----5-----4-----3----|
A---5h7---7h9---5---------4-3---------2--|
E-0-----0--------------------------------|

Verse:
G--------------------------------------------------------------------|
D--------------------------------------------------------------------|
A--------------------------------------------------------------------|
E-3-3-2h3-----------3-3--3-2h3----------3-3--3-3h2-------3-3--3-3h2--|

Slow Bridge Part
G-------------------------6/8/6-------------------------------------------|
D-------------------------------------------------------------------------|
A--2-------------------4------------2--------------------4444444444444444-|
E---------2-------5------------------------2-------5----------------------|

Chorus
G-----------------------------|
D-----------------------------|
A--2--(2)---------------4-----|
E---------2--(2)-5--(5)-------|
Suggest correction
Give kudos to tab author, rate the tab!
1 2 3 4 5
comments
print report bad tab
guest
You may want to rate the tab now too:
select rating
Wanna post a correction for this tab? Suggest correction