Oops, an error
Loading. Please wait.

I Love You Tab

133 views 1 this week
no commentswrite comment
1 2 3 4 5
3 more votes to show rating
add to favorites
launch autoscroll
font size
0
reset
how to read this tab
guitar tuner
Autoscroll
slow
fast
+/-
esc
set tempo
stop
Help us to improve Ultimate-Guitar.com Take our survey!
×
Author
Difficulty
Capo
intermediate
7th fret
Una Healy - I Love You
From the EP 'Sorry'

Capo 7th

Chords

A ______  A1 ______
  ------     ------|
  --000-     0--00-|
  ------     ------|
  ------     ------|

E ______  E1 ______
  ---0--     ---0--|
  -00---     --0---|
  ------     ------|
  ------     ------|

D ______ F#m ______
  ------     -------|
  ---0-0     000000-|
  ----0-     -------|
  ------     -00----|

Intro (Tabs are representative to capo.)

e------------------------------------------|
B------------------------------------------|
G----------2---------------------2-2-4-4-6-|
D-----4--6---6--4--2--4-----4--6-----------|
A------------------------------------------|
E------------------------------------------|

 A  A1     E           A  A1     E

e------------------------------------------|
B-----5-7-5-----3-2-3-2---------------2-0--|
G--------------------------------222-1---2-|
D------------------------------------------|
A------------------------------------------|
E------------------------------------------|

 A  A1     E           A  A1     E

e---------------------|
B---------------------|
G---------------------|
D-4--2--0-2-0---------|
A-------------4-------|
E---------------------|

  D           A

V1

A  A1              E
 I know we've been through tough times
A           A1           E
 But we got through them somehow
A     A1          E
 Some people said we're not right
A          A1         E
 But we'll prove them wrong
        D
For the third time round
  E          E1       E
I hope we're homeward bound

CHORUS

A  A1             E
 I love what your doing to me
A           A1      E
 I love the way you make me feel
A      A1        E
 And I love everything that you do
A           A1     E
 But most importantly
       A
I love you

e---------------------|
B---------------------|
G-6-4-2-1-2-----------|
D---------------------|
A---------------------|
E---------------------|

V2

A  A1     E
 I almost lost you twice
A              A1      E
 But that wont happen again
A   A1       E
 In you I've found the one
A          A1            E
 I want to share my life with
        D
I wanna make you see
    E        E1      E
How much you mean to me
          A
ohh oh ohh

CHORUS

A  A1             E
 I love what your doing to me
A           A1      E
 I love the way you make me feel
A      A1        E
 And I love everything that you do
A           A1     E
 But most importantly
       A
I love you

e-----------------------|
B-5-5-3-2-3-3-2-0-2-0---|
G---------------------2-|
D-----------------------|
A-----------------------|
E-----------------------|

ohh ohh ohhh

BRIDGE

F#m
There maybe times
        D               A
When we wont see eye to eye
F#m
And there maybe nights
         D                  E
When I'm lonely without you by my side

ohhhhhh
F#m               A
But that's inevitable
             D
'cause we're two different people
E        E1        F#m
Coming together as one

ohhhh ohh ohhh
      D   A
ohhhh ohh ohh

e------------------------------------------|
B------------------------------------------|
G----------2---------------------2-2-4-4-6-|
D-----4--6---6--4--2--4-----4--6-----------|
A------------------------------------------|
E------------------------------------------|

 A  A1     E           A  A1     E

e------------------------------------------|
B-----5-7-5-----3-2-3-2------------------2-|
G--------------------------------012-1-1---|
D------------------------------------------|
A------------------------------------------|
E------------------------------------------|

 A  A1     E           A  A1       E

e-------------------------|
B-0------------2-0--------|
G--1---------------2-1-2--|
D----4-412-0--------------|
A------------4------------|
E-------------------------|

     D        A

CHORUS

A  A1             E
 I love what your doing to me
A           A1      E
 I love the way you make me feel
A      A1        E
 And I love everything that you do
A           A1     E
 But most importantly
       A
I love you

I love you

A  A1             E
 I love what your doing to me
A           A1      E
 I love the way you make me feel
A      A1        E
 And I love everything that you do
A           A1     E
 But most importantly
       A
I love you

ohhhhh
Suggest correction
Give kudos to tab author, rate the tab!
1 2 3 4 5
comments
print report bad tab
guest
You may want to rate the tab now too:
select rating
Wanna post a correction for this tab? Suggest correction