Oops, an error
Loading. Please wait.

So Long Tab

32 views 1 this week
no commentswrite comment
1 2 3 4 5
please rate
add to favorites
launch autoscroll
font size
0
reset
how to read this tab
guitar tuner
Tab Pro tools
  • play this tab
  • loop segment
  • change instrument
  • show fretboard
  • metronome
Autoscroll
slow
fast
+/-
esc
set tempo
stop
Contributor
Difficulty
intermediate
Una Healy - So Long
From the EP 'Sorry'

**= information
()= optional
[]= optional vocals

INTRO

Electric 1
e-------------------------------------------------------------|
B-------------------------------------------------------------|
G-------------------------------------------------------------|
D-2-------2------------------5-5------------------------------|
A-2-------2--5---5---5---5---3-3------777---------------------|
E-0-------0--3---3---3---3------------555-232-----------------|

Electric 2
e-------------------------------------------------------------|
B-------------------------------------------------------------|
G-------------------------------------------------------------|
D-------------------------------------------------------------|
A-------------------------------------------------------------|
E-------------------------------------------------------------|

Acoustic

 Em         G                 C       Am


Electric 1
e-------------------------------------------------------------|
B-------------------------------------------------------------|
G-------------------------------------------------------------|
D-2-------2------------------5-5------------------------------|
A-2-------2--5---5---5---5---3-3------777---------------------|
E-0-------0--3---3---3---3------------555-232-----------------|

Electric 2
e-7-8-7-5-7---------------------------------------------------|
B----------------------------7-8------5-----------------------|
G-----------------------------------------7-------------------|
D-------------------------------------------------------------|
A-------------------------------------------------------------|
E-------------------------------------------------------------|

Acoustic

 Em         G                 C       Am


Electric 1
e-------------------------------------------------------------|
B-------------------------------------------------------------|
G-------------------------------------------------------------|
D-2-------2------------------5-5------------------------------|
A-2-------2--5---5---5---5---3-3------777---------------------|
E-0-------0--3---3---3---3------------555-232-----------------|

Electric 2
e-7-8-7-5-7---------------------------------------------------|
B----------------------------7-8----------5-------------------|
G-------------------------------------7-----------------------|
D-------------------------------------------------------------|
A-------------------------------------------------------------|
E-------------------------------------------------------------|

Acoustic

 Em         G                 C       Am


Electric 1
e-------------------------------------------------------------|
B-------------------------------------------------------------|
G-------------------------------------------------------------|
D-2-------2------------------5-5------------------------------|
A-2-------2--5---5---5---5---3-3------777---------------------|
E-0-------0--3---3---3---3------------555-232-----------------|

Electric 2
e-7-8-7-5-7--------------10--(12)-----------------------------|
B-------------------------------------------------------------|
G-------------------------------------------------------------|
D-------------------------------------------------------------|
A-------------------------------------------------------------|
E-------------------------------------------------------------|

Acoustic

 Em         G                 C       Am


V1 *N/A Electric 1 + 2*

Acoustic
e-------------------------------------------------------------|
B---------------------------------1-------1-------------------|
G-----0---------0-----------------------2---2-----------------|
D-------------------------------2---2-------------------------|
A---2---2-----2---2-----------3-------0-----------------------|
E-0---------3-------------------------------------------------|

 Em         G                 C       Am
   All the  leaves of the willow


Acoustic
e-------------------------------------------------------------|
B---------------------------------1-------1-------------------|
G-----0---------0-----------------------2---2-----------------|
D-------------------------------2---2-------------------------|
A---2---2-----2---2-----------3-------0-----------------------|
E-0---------3-------------------------------------------------|

 Em         G                 C       Am
  They wave
        goodbye flow with the wind


Acoustic
e-------------------------------------------------------------|
B---------------------------------1-------1-------------------|
G-----0---------0-----------------------2---2-----------------|
D-------------------------------2---2-------------------------|
A---2---2-----2---2-----------3-------0-----------------------|
E-0---------3-------------------------------------------------|

 Em         G                 C       Am
   When the winter comes      they're
                          all falling down


Acoustic
e-------------------------------------------------------------|
B---------------------------------1-------1-------------------|
G-----0---------0-----------------------2---2-----------------|
D-------------------------------2---2-------------------------|
A---2---2-----2---2-----------3-------0-----------------------|
E-0---------3-------------------------------------------------|

 Em         G                 C       Am
   Leaves
        the willow            all alone

CHORUS *N/A Electric 2*

Electric 1
e-------------------------------------------------------------|
B-------------------------------------------------------------|
G-------------------------------------------------------------|
D-2-------2------------------5-5------------------------------|
A-2-------2--5---5---5---5---3-3------777---------------------|
E-0-------0--3---3---3---3------------555-232-----------------|

Acoustic

 Em          G               C        Am
   Why'd you keep me
                  waiting so long

Electric 1
e-------------------------------------------------------------|
B-------------------------------------------------------------|
G-------------------------------------------------------------|
D-2-------2------------------5-5------------------------------|
A-2-------2--5---5---5---5---3-3------777---------------------|
E-0-------0--3---3---3---3------------555-232-----------------|

Accousic

 Em          G               C        Am
   You keep
          me waiting hanging on

Electric 1
e-------------------------------------------------------------|
B-------------------------------------------------------------|
G-------------------------------------------------------------|
D-2-------2------------------5-5------------------------------|
A-2-------2--5---5---5---5---3-3------777---------------------|
E-0-------0--3---3---3---3------------555-232-----------------|

Acoustic

 Em          G               C        Am
   Why'd you keep me
                  waiting so long

Electric 1
e-------------------------------------------------------------|
B-------------------------------------------------------------|
G-------------------------------------------------------------|
D-2-------2------------------5-5------------------------------|
A-2-------2--5---5---5---5---3-3------777---------------------|
E-0-------0--3---3---3---3------------555-232-----------------|

Acoustic

 Em          G               C        Am
 So long                     so long

V2 *N/A Electric 1*

Electric 2
e-------------------------------------------------------------|
B-------------------------------------7-8-7-8-5---------------|
G-------------------------------------------------------------|
D-------------------------------------------------------------|
A-------------------------------------------------------------|
E-------------------------------------------------------------|

Acoustic
e-------------------------------------------------------------|
B---------------------------------1-------1-------------------|
G-----0---------0-----------------------2---2-----------------|
D-------------------------------2---2-------------------------|
A---2---2-----2---2-----------3-------0-----------------------|
E-0---------3-------------------------------------------------|

 Em         G                 C       Am
   I shop
     till I drop        and I drink
                          till I drown

*Now N/A Electric 2*
Acoustic
e-------------------------------------------------------------|
B---------------------------------1-------1-------------------|
G-----0---------0-----------------------2---2-----------------|
D-------------------------------2---2-------------------------|
A---2---2-----2---2-----------3-------0-----------------------|
E-0---------3-------------------------------------------------|

 Em         G                 C       Am
   I keep myself out on the   town

Acoustic
e-------------------------------------------------------------|
B---------------------------------1-------1-------------------|
G-----0---------0-----------------------2---2-----------------|
D-------------------------------2---2-------------------------|
A---2---2-----2---2-----------3-------0-----------------------|
E-0---------3-------------------------------------------------|

 Em         G                 C       Am
   Coz I
       dont want to come back to an
                                empty place

Acoustic
e-------------------------------------------------------------|
B---------------------------------1-------1-------------------|
G-----0---------0-----------------------2---2-----------------|
D-------------------------------2---2-------------------------|
A---2---2-----2---2-----------3-------0-----------------------|
E-0---------3-------------------------------------------------|

 Em         G                 C       Am
   Just
  like that sad lonely old    willow
                                  its leaves are my tears

CHORUS *N/A Electric 2*

Electric 1
e-------------------------------------------------------------|
B-------------------------------------------------------------|
G-------------------------------------------------------------|
D-2-------2------------------5-5------------------------------|
A-2-------2--5---5---5---5---3-3------777---------------------|
E-0-------0--3---3---3---3------------555-232-----------------|

Acoustic

 Em          G               C        Am
   Why'd you keep me
                  waiting so long

Electric 1
e-------------------------------------------------------------|
B-------------------------------------------------------------|
G-------------------------------------------------------------|
D-2-------2------------------5-5------------------------------|
A-2-------2--5---5---5---5---3-3------777---------------------|
E-0-------0--3---3---3---3------------555-232-----------------|

Acoustic

 Em          G               C        Am
   You keep
          me waiting hanging on

Electric 1
e-------------------------------------------------------------|
B-------------------------------------------------------------|
G-------------------------------------------------------------|
D-2-------2------------------5-5------------------------------|
A-2-------2--5---5---5---5---3-3------777---------------------|
E-0-------0--3---3---3---3------------555-232-----------------|

Acoustic

 Em          G               C        Am
   Why'd you keep me
                  waiting so long

Electric 1
e-------------------------------------------------------------|
B-------------------------------------------------------------|
G-------------------------------------------------------------|
D-2-------2------------------5-5------------------------------|
A-2-------2--5---5---5---5---3-3------777---------------------|
E-0-------0--3---3---3---3------------555-232-----------------|

Acoustic

 Em          G               C        Am
 So long                     so long

BRIDGE

Electric 1
e-------------------------------------------------------------|
B-------------------------------------------------------------|
G-------------------------------------------------------------|
D-2-------2------------------5-5------------------------------|
A-2-------2--5---5---5---5---3-3------777---------------------|
E-0-------0--3---3---3---3------------555-232-----------------|

Electric 2
e-0-----------------------------------------------------------|
B-17-------------------------7-8-7-8-7-8-7-8------------------|
G-------------------------------------------------------------|
D-------------------------------------------------------------|
A-------------------------------------------------------------|
E-------------------------------------------------------------|

Acoustic

 Em         G                 C       Am


Electric 1
e-------------------------------------------------------------|
B-------------------------------------------------------------|
G-------------------------------------------------------------|
D-2-------2------------------5-5------------------------------|
A-2-------2--5---5---5---5---3-3------777---------------------|
E-0-------0--3---3---3---3------------555-232-----------------|

Electric 2
e-0-----------------------------------------------------------|
B-17-------------------------7-8-7-8-7-8-7-8------------------|
G-------------------------------------------------------------|
D-------------------------------------------------------------|
A-------------------------------------------------------------|
E-------------------------------------------------------------|

Acoustic

 Em         G                 C       Am

*Now N/A Electric 1*

Electric 2
e-0-----------------------------------------------------------|
B-17----------------------------------------------------------|
G-------------------------------------------------------------|
D-------------------------------------------------------------|
A-------------------------------------------------------------|
E-------------------------------------------------------------|

Acoustic
e-------------------------------------------------------------|
B---------------------------------1-------1-------------------|
G-----0---------0-----------------------2---2-----------------|
D-------------------------------2---2-------------------------|
A---2---2-----2---2-----------3-------0-----------------------|
E-0---------3-------------------------------------------------|

 Em         G                 C       Am
 Leaves . . .                 tears . . .

Electric 2
e-------------------------------------------------------------|
B-------------------------------------------------------------|
G-------------------------------------------------------------|
D-------------------------------------------------------------|
A-------------------------------------------------------------|
E-------------------------------------------------------------|

Acoustic
e-------------------------------------------------------------|
B---------------------------------1-------1-------------------|
G-----0---------0-----------------------2---2-----------------|
D-------------------------------2---2-------------------------|
A---2---2-----2---2-----------3-------0-----------------------|
E-0---------3-------------------------------------------------|

 Em         G                 C       Am
 Leaves and
 tears they fall down         leaves
                             and tears

Electric 2
e-------------------------------------------------------------------|
B-------------------------------------7-8-7-8-5---------------------|
G-------------------------------------------------------------------|
D-------------------------------------------------------------------|
A-------------------------------------------------------------------|
E-------------------------------------------------------------------|

Acoustic
e-------------------------------------------------------------|
B---------------------------------1-------1-------------------|
G-----0---------0-----------------------2---2-----------------|
D-------------------------------2---2-------------------------|
A---2---2-----2---2-----------3-------0-----------------------|
E-0---------3-------------------------------------------------|

 Em         G                 C       Am
 Leaves and
 tears they fall down         leaves
                             and tears
Electric 2
e------------------------------------------------------------------|
B-------------------------------------7-8-7-8----------------------|
G------------------------------------------------------------------|
D------------------------------------------------------------------|
A------------------------------------------------------------------|
E------------------------------------------------------------------|

Acoustic
e-------------------------------------------------------------|
B---------------------------------1-------1-------------------|
G-----0---------0-----------------------2---2-----------------|
D-------------------------------2---2-------------------------|
A---2---2-----2---2-----------3-------0-----------------------|
E-0---------3-------------------------------------------------|

 Em         G                 C       Am
 Leaves and
 tears they fall down         leaves
                       and tears they fall down

Electric 2
e-------------------------------------------------------------|
B-7--8--7--8--7--8--7--8--7--8--7--8--7--8--7--8--------------|
G-------------------------------------------------------------|
D-------------------------------------------------------------|
A-------------------------------------------------------------|
E-------------------------------------------------------------|

Acoustic
e-------------------------------------------------------------|
B---------------------------------1-------1-------------------|
G-----0---------0-----------------------2---2-----------------|
D-------------------------------2---2-------------------------|
A---2---2-----2---2-----------3-------0-----------------------|
E-0---------3-------------------------------------------------|

 Em         G                 C       Am
 Leaves and
 tears they fall down         leaves
                       and tears they fall down

Electric 2
e-0-----------------------------------------------------------|
B-17----------------------------------------------------------|
G-------------------------------------------------------------|
D-------------------------------------------------------------|
A-------------------------------------------------------------|
E-------------------------------------------------------------|

Acoustic
e-------------------------------------------------------------|
B---------------------------------1-------1-------------------|
G-----0---------0-----------------------2---2-----------------|
D-------------------------------2---2-------------------------|
A---2---2-----2---2-----------3-------0-----------------------|
E-0---------3-------------------------------------------------|

 Em         G                 C       Am
 Leaves and tears they fall down

CHORUS

Electric 1
e-------------------------------------------------------------|
B-------------------------------------------------------------|
G-------------------------------------------------------------|
D-2---2---2------------------5-5------------------------------|
A-2---2---2------------------3-3------777---------------------|
E-0---0---0---------------------------555-232-----------------|

Electric 2
e-----------------0-------------------------------------------|
B-----------------17------------------------------------------|
G-------------------------------------------------------------|
D-------------------------------------------------------------|
A-------------------------------------------------------------|
E-------------------------------------------------------------|

Acoustic

 Em                          C        Am
           Why'd you keep
               me waiting so long

Electric 1
e-------------------------------------------------------------|
B-------------------------------------------------------------|
G-------------------------------------------------------------|
D-2-------2------------------5-5------------------------------|
A-2-------2--5---5---5---5---3-3------777---------------------|
E-0-------0--3---3---3---3------------555-232-----------------|

Electric 2
e-------------------------------------------------------------|
B-------------------------------------------------------------|
G-------------------------------------------------------------|
D-------------------------------------------------------------|
A-------------------------------------------------------------|
E-------------------------------------------------------------|

Acoustic

 Em         G                 C       Am
   You keep
         me waiting, hanging  on [ohh so long]

Electric 1
e-------------------------------------------------------------|
B-------------------------------------------------------------|
G-------------------------------------------------------------|
D-2-------2------------------5-5------------------------------|
A-2-------2--5---5---5---5---3-3------777---------------------|
E-0-------0--3---3---3---3------------555-232-----------------|

Electric 2
e-------------------------------------------------------------|
B-------------------------------------------------------------|
G-------------------------------------------------------------|
D-------------------------------------------------------------|
A-------------------------------------------------------------|
E-------------------------------------------------------------|

Acoustic

 Em         G                 C       Am
  Why'd you treat me       so wrong
                            [so long, so long]

Electric 1
e-------------------------------------------------------------|
B-------------------------------------------------------------|
G-------------------------------------------------------------|
D-2-------2------------------5-5------------------------------|
A-2-------2--5---5---5---5---3-3------777---------------------|
E-0-------0--3---3---3---3------------555-232-----------------|

Electric 2
e-------------------------------------------------------------|
B-------------------------------------------------------------|
G---9-------9-------9-------9----9--9-9-9-9-9-----------------|
D-------------------------------------------------------------|
A-------------------------------------------------------------|
E-------------------------------------------------------------|

Acoustic

 Em         G                 C       Am
 So long                      so long

ENDING

Electric 1
e-------------------------------------------------------------|
B-------------------------------------------------------------|
G-------------------------------------------------------------|
D-2-------2------------------5-5------------------------------|
A-2-------2--5---5---5---5---3-3------777---------------------|
E-0-------0--3---3---3---3------------555-232-----------------|

Electric 2
e-7-8-7-5-7---------------------------------------------------|
B----------------------------7-8------5-----------------------|
G-----------------------------------------7-------------------|
D-------------------------------------------------------------|
A-------------------------------------------------------------|
E-------------------------------------------------------------|

Acoustic

 Em         G                 C       Am
 [So long]
 Leaves and
 tears they fall down         leaves
                       and tears they fall down

Electric 1
e-------------------------------------------------------------|
B-------------------------------------------------------------|
G-------------------------------------------------------------|
D-2-------2------------------5-5------------------------------|
A-2-------2--5---5---5---5---3-3------777---------------------|
E-0-------0--3---3---3---3------------555-232-----------------|

Electric 2
e-7-8-7-5-7---------------------------------------------------|
B----------------------------7-8----------5-------------------|
G-------------------------------------7-----------------------|
D-------------------------------------------------------------|
A-------------------------------------------------------------|
E-------------------------------------------------------------|

Acoustic

 Em         G                 C       Am
 [So long]
 Leaves and
 tears they fall down         leaves
                       and tears they fall down

Electric 1
e-------------------------------------------------------------|
B-------------------------------------------------------------|
G-------------------------------------------------------------|
D-2-------2------------------5-5------------------------------|
A-2-------2--5---5---5---5---3-3------777---------------------|
E-0-------0--3---3---3---3------------555-232-----------------|

Electric 2
e-7-8-7-5-7--------------10--(12)-----------------------------|
B-------------------------------------------------------------|
G-------------------------------------------------------------|
D-------------------------------------------------------------|
A-------------------------------------------------------------|
E-------------------------------------------------------------|

Acoustic

 Em         G                 C       Am
 [So long]
 Leaves and
 tears they fall down         leaves
                       and tears they fall down

Electric 1
e-------------------------------------------------------------|
B-------------------------------------------------------------|
G-------------------------------------------------------------|
D-2-------2------------------5--------------------------------|
A-2-------2--5---5---5---5---3--------------------------------|
E-0-------0--3---3---3---3------------------------------------|

Electric 2
e-------------------------------------------------------------|
B-------------------------------------------------------------|
G-------------------------------------------------------------|
D-------------------------------------------------------------|
A-------------------------------------------------------------|
E-------------------------------------------------------------|

Acoustic

 Em         G                 C       Am
 Leaves and
 tears they fall down      so long so long
comments
We did not receive enough feedback on this tab! Please rate:
print report bad tab
1 2 3 4 5
I want to post or [tab]
guest
You may want to rate the tab now too:
select rating
Please do not post tabs as comments. Select "correction" instead!