Oops, an error
Loading. Please wait.

Como Te Voy A Olvidar Tab

55 views 1 this week
no commentswrite comment
1 2 3 4 5
3 more votes to show rating
add to favorites
launch autoscroll
font size
0
reset
how to read this tab
guitar tuner
×
Best way to learn
"Como Te Voy A Olvidar"
Autoscroll
slow
fast
+/-
esc
set tempo
stop
La canción va en ritmo de Caporal

Los Sambos!!!!

1|------------------0-0-0-0--0-0-0-----|
2|1-1-1-0-1--1-1-1-------3-1----3-1----|
3|---------0------0--------------------|
4|-------------------------------------|
5|3-3-3---3--3-3-----------------------|
6|-------------------------------------|

1|1-1-1-1------------1-1-1-1-3-5-3-----|
2|1------3-1-1-0-0---1-----------------|
3|2------------------2-----------------|
4|3------------------3-----------------|
5|3------------------3-----------------|
6|1------------------1-----------------|

1|------------------0-0-0-0--0-0-0-----|
2|1-1-1-0-1--1-1-1-------3-1----3-1----|
3|---------0------0--------------------|
4|-------------------------------------|
5|3-3-3---3--3-3-----------------------|
6|-------------------------------------|

1|1-1-1-1------------1-1-1-1-3-5-3-----|
2|1------3-1-1-0-0---1-----------------|
3|2------------------2-----------------|
4|3------------------3-----------------|
5|3------------------3-----------------|
6|1------------------1-----------------|

Sector de Instrumentos de viento

DO                LAm
Amor, amor, amor, Amor, amor, amor,
FA                                SOL 
Quiero que me vuelvan a mirar tus ojos
DO                LAm
Amor, amor, amor, Amor, amor, amor,
FA                                    SOL 
Quiero que me vuelvan a besar tus labios rojos

DO 
Como no acordarme de ti,
LAm
De qué manera olvidarte
 FA                   SOL 
Si todo me recuerda a ti,
 FA                      SOL 
En todas partes estas tu

 DO 
Si en una rosa estas tú
LAm
En cada respirar estas tu
 FA               SOL    FA              SOL 
Como te voy a olvidar,   como te voy a olvidar
  DO 
Si besando la cruz esta tú

LAm
Rezando una oración estas tú
 FA               SOL    FA               SOL 
Como te voy a olvidar,   como te voy a olvidar

 DO                        LAm
Si quedaste aquí en mi corazón
   FA                    SOL 
Y de amor has llenado mi alma
  DO                     LAm
Y tu sangre corre por mis venas
   FA                      SOL           DO 
Y tu sangre me hace estremecer ¡amor contigo:)

Se repite la introducción.

DO                        LAm
Si quedaste aquí en mi corazón
   FA                    SOL 
Y de amor has llenado mi alma
  DO                     LAm
Y tu sangre corre por mis venas
   FA                      SOL           DO 
Y tu sangre me hace estremecer ¡amor contigo:)

Al Final se Hace una introducción.
       DO 
Amor Amor
Fin . . .

Ojala les haya gustado, esta canción va dedicada
A Jhenny Carol, también a mis amigos de los
Sambos Alex, Caiman y Nils

Por: César Mamani Magne

Cualquier cosa a mi correo:

                          ojos_tristes_rachyr@

                                 TodoMeMaleSal
Suggest correction
Give kudos to tab author, rate the tab!
1 2 3 4 5
comments
print report bad tab
guest
You may want to rate the tab now too:
select rating
Wanna post a correction for this tab? Suggest correction