Oops, an error
Loading. Please wait.

D4 Tab

19 views 3 this week
no commentswrite comment
1 2 3 4 5
2 more votes to show rating
add to favorites
launch autoscroll
font size
0
reset
how to read this tab
guitar tuner
Autoscroll
slow
fast
+/-
esc
set tempo
stop
Help us to improve Ultimate-Guitar.com Take our survey!
×
Author
Tuning
D A D G B E
    e|-------------------------------|
    B|-------------------------------|
GTR G|---6-6-5-5-5-------------------|
 1  D|-------------7-7-7-6-6---------| x2
    A|-----------------------8-8-6-6-|
    D|-0-----------------------------|

    e|-------------------------------|
    B|-------------------------------|
GTR G|-------------------------------|
 2  D|-0-----------------------------| x2
    A|-0---------------------------1-|
    D|-0---------------------------1-|
                               

    e|-------------------------------|
    B|-------------------------------|
GTR G|---6-6-5-5-5-------------------|
 1  D|-------------7-7-7-6-6---------| x2
    A|-----------------------8-8-6-6-|
    D|-0-----------------------------|

    e|------------------------------------------------|
    B|------------------------------------------------|
GTR G|---13-13-12-12-12-12----------------------------|
 2  D|---------------------14-14-14-13-13-------------| x2
    A|------------------------------------15-15-13-13-|
    D|-0----------------------------------------------|

    e|--------------------------------------------------|
    B|--------------------------------------------------|
GTR G|--------------------------------------------------|
1+2 D|------------------------------------------------1-| x4
    A|-1-0-0-0-0-1-0-0-1-0-0-1--1-0-0-0-0-------------1-|
    D|-1-0-0-0-0-1-0-0-1-0-0-1--1-0-0-0-0-4-1-0-4-1-0-1-|
         P M P M   P M   P M      P M P M P M P M P M

    e|-----------------------|
    B|-----------------------|
GTR G|----6--5---------------|
1+2 D|-0-------0-7--6-0-3--2-| x4
    A|-0--4--3-0-7--6-0-3--2-|
    D|-0-------0-7--6-0-3--2-|

    e|--------------------------------------------------|
    B|--------------------------------------------------|
GTR G|--------------------------------------------------|
1+2 D|------------------------------------------------1-| x4
    A|-1-0-0-0-0-1-0-0-1-0-0-1--1-0-0-0-0-------------1-|
    D|-1-0-0-0-0-1-0-0-1-0-0-1--1-0-0-0-0-4-1-0-4-1-0-1-|
         P M P M   P M   P M      P M P M P M P M P M

    e|-----------------------|
    B|-----------------------|
GTR G|----6--5---------------|
1+2 D|-0-------0-7--6-0-3--2-| x2
    A|-0--4--3-0-7--6-0-3--2-|
    D|-0-------0-7--6-0-3--2-|

    e|-----------------------|
    B|-----------------------|
GTR G|----6--5---------------|
 1  D|-0-------0-7--6-0-3--2-| x2
    A|-0--4--3-0-7--6-0-3--2-|
    D|-0-------0-7--6-0-3--2-|

    e|---------------------|
    B|---------------------|
GTR G|---6--5--------------|
 1  D|---------7--6--------| x2
    A|---------------8--6--|
    D|-0-------------------|

    e|----------------------------|
    B|----------------------------|
GTR G|----------------------------|
1+2 D|-0--------------------------|
    A|-0--fade out.....fade in...-|
    D|-0--------------------------|

    e|-----------------|
    B|-----------------|
GTR G|-----------------|
1+2 D|-----7-------7---|
    A|---5---5---5---5-|
    D|-0-------8-------|

    e|-----------------|
    B|-----------------|
GTR G|-----------------|
 1  D|-----7-------7---|
    A|---5---5---5---5-|
    D|-0-------8-------|

    e|----------------|
    B|-----0-------0--|
GTR G|----------------|
 2  D|-------0--------|
    A|---5-------5----|
    D|-0-------8------|

    e|-----------------|
    B|-----------------|
GTR G|-----------------|
1+2 D|-----7-------7---|
    A|---5---5---5---5-|
    D|-0-------8-------|

    e|-------------------------|
    B|-------------------------|
GTR G|-------------------------|
 1  D|-----7-------7--7-7--7-7-|
    A|---5---5---5-------------|
    D|-0-------8---------------|

    e|----------------|
    B|-----0-------0--|
GTR G|----------------|
 2  D|-------0--------|
    A|---5-------5----|
    D|-0-------8------|

    e|-----------------|
    B|-----------------|
GTR G|-----------------|
 1  D|-----7-------7---| x4
    A|---5---5---5---5-|
    D|-0-------8-------|

    e|---------------------------------------------------------------------------------------|
    B|-10^-10^-10^-10^--12------13--12--10--12--14--15--15--15--15--15^-1515-1515-151515-15^-|
GTR G|----------------------12---------------------------------------------------------------|
 2  D|---------------------------------------------------------------------------------------|
    A|---------------------------------------------------------------------------------------|
    D|---------------------------------------------------------------------------------------|

^ small bends. 14 is a total bum note, but there you go.

    e|------------------------------------|
    B|------------------------------------|
GTR G|-----------14--14-14-14-14-14-14-14-|
 1  D|-----------12--12-12-12-12-12-12-12-| x8
    A|-0-0--0-0--13--13-13-13-13-13-13-13-|
    D|-0-0--0-0---------------------------|

    e|------------------------------------|
    B|------------------------------------|
GTR G|------------------------------------|
 2  D|------------------------------------|
    A|-Random noises----------------------|
    D|------------------------------------|

    e|-----------------------------------------------------------------------|
    B|-----------------------------------------------------------------------|
GTR G|-14--14-14-14-14--14-14-14-14--14-14-14--14-14-14-14--14-14-14-14--14--|
 1  D|-12--12-12-12-12--12-12-12-12--12-12-12--12-12-12-12--12-12-12-12--12--|
    A|-13--13-13-13-13--13-13-13-13--13-13-13--13-13-13-13--13-13-13-13--13--|
    D|-----------------------------------------------------------------------|

    e|------------------------------------------------------------------------|
    B|------------------------------------------------------------------------|
GTR G|-14-----------12-----14-------------------------------------------------|
 2  D|------14--15-----15------15--14-----------------------------------------|
    A|---------------------------------15--13--12-----12----13----12----13----|
    D|------------------------------------------------------------------------|

    e|----------------------------------------------------------------------|
    B|----------------------------------------------------------------------|
GTR G|-19--19-19-19-19--19-19-19-19--19-19-19--19-19-19-19--19-19-19-19--19-|
 1  D|----------------------------------------------------------------------|
    A|-17--17-17-17-17--17-17-17-17--17-17-17--17-17-17-17--17-17-17-17--17-|
    D|----------------------------------------------------------------------|

    e|---------------------------------------------------------------|
    B|---------------------------------------------------------------|
GTR G|---------------------------14----------------------------------|
 2  D|-------------------------------15--14--------------------------|
    A|-12----13-----12----13-----------------15--13--12--12----13----|
    D|---------------------------------------------------------------|

    e|-----------------------------------------------------------------|
    B|-----------------------------------------------------------------|
GTR G|-----------------------------------------------------------------|
1+2 D|-----------------------------------------------------------------|
    A|-0-0-0-0-0-0-0-0-0-0-0-0-0-0-0-0-0-0-0-0-0-0-0-0-0-0-0-0-0-0-0-0-|
    D|-0-0-0-0-0-0-0-0-0-0-0-0-0-0-0-0-0-0-0-0-0-0-0-0-0-0-0-0-0-0-0-0-|
       * * * * * * * * * * * * * * * * * * * * * * * * * * * * * * * *

    e|-------------------------------------------------------------------------------------------------|
    B|-------------------------------------------------------------------------------------------------|
GTR G|-14-14-14-14-14-14-14-14-14-14-14-14-14-14-14-14-14-14-14-14-14-14-14-14-14-14-14-14-14-14-14-14-|
 1  D|-12-12-12-12-12-12-12-12-12-12-12-12-12-12-12-12-12-12-12-12-12-12-12-12-12-12-12-12-12-12-12-12-|
    A|-13-13-13-13-13-13-13-13-13-13-13-13-13-13-13-13-13-13-13-13-13-13-13-13-13-13-13-13-13-13-13-13-|
    D|-------------------------------------------------------------------------------------------------|

    e|-----------------------|
    B|-----------------------|
GTR G|----6--5---------------|
1+2 D|-0-------0-7--6-0-3--2-| x2
    A|-0--4--3-0-7--6-0-3--2-|
    D|-0-------0-7--6-0-3--2-|

    e|-----------------------|
    B|-----------------------|
GTR G|----6--5---------------|
 1  D|-0-------0-7--6-0-3--2-| x2
    A|-0--4--3-0-7--6-0-3--2-|
    D|-0-------0-7--6-0-3--2-|

    e|---------------------|
    B|---------------------|
GTR G|---6--5--------------|
 1  D|---------7--6--------| x2
    A|---------------8--6--|
    D|-0-------------------|

    e|---|
    B|---|
GTR G|---|
1+2 D|-0-|
    A|-0-|
    D|-0-|
Suggest correction
Give kudos to tab author, rate the tab!
1 2 3 4 5
comments
print report bad tab
guest
You may want to rate the tab now too:
select rating
Wanna post a correction for this tab? Suggest correction