Oops, an error
Loading. Please wait.

Desert Ceremony solo tab

419 views 3 this week
1 commentread comment
1 2 3 4 5
x 3
add to favorites
×
Save as Personal and add changes to this tab that will be seen only by you. Learn more ›
×
You can save this tab as Personal to edit and correct it or add notes. All changes will be seen only by you. Learn more »
launch autoscroll
font size
0
reset
how to read this tab
guitar tuner
edit
Autoscroll
slow
fast
+/-
esc
set tempo
stop
This is my first ever tab, constructive criticism welcome. 
If this tab is received well then I will try to write and submit the full song tab for Desert Ceremony.

Due to the number of bends in this solo it is best to listen to the song to get the timing right on the bends
as they vary.

[Solo]

C#|-------------------5-------------5-------------------------------------------------------|
G#|----8b10--8b10-(10)---8--5------5---5-8-5--------------8-10-10b12-10-8-8~~10p8-----------|
E |---------------------------7-------------7b8r7p5/9--9--------------------------9\7\5~~~--|
B |-----------------------------------------------------------------------------------------|
F#|-----------------------------------------------------------------------------------------|
C#|-----------------------------------------------------------------------------------------|

C#|---------------------------------------------------------------------------|
G#|--/10~~--pb12r10-8-8---8-pb12r10-8-----8-10b12b13-10p8-10~~~---------------|
E |---------------------9--------------9--------------------------------------|
B |---------------------------------------------------------------------------|
F#|---------------------------------------------------------------------------|
C#|---------------------------------------------------------------------------|


C#|-----------------------------------------------15--------------------------|
G#|--10-8-10/12-10-12/13-12-13/15---13-15-15b17~~~--15b17-17r15-15-13-12------|
E |---------------------------------------------------------------------------|
B |---------------------------------------------------------------------------|
F#|---------------------------------------------------------------------------|
C#|---------------------------------------------------------------------------|

C#|----------------------------------------19----19b20r19----19-19b20r19------|
G#|--13b15~~~-pb15r13-12-10b12r10~~~----17----17----------17-------------17---|
E |---------------------------------------------------------------------------|
B |---------------------------------------------------------------------------|
F#|---------------------------------------------------------------------------|
C#|---------------------------------------------------------------------------|


C#|---------------------------------20-------------------20----------17-------|
G#|--20(short pause before bend)b22----20b22r20-17-20b22----20b22~~~----20-17-|
E |---------------------------------------------------------------------------|
B |---------------------------------------------------------------------------|
F#|---------------------------------------------------------------------------|
C#|---------------------------------------------------------------------------|

C#|---------------------------------------------------------------------------|
G#|----------------------20b22~~~r--------------------------------------------|
E |-19b20r19--19b20r19-------------20b23.5r---17-19-19b20r19-17-17b19r17-16---|
B |---------------------------------------------------------------------------|
F#|---------------------------------------------------------------------------|
C#|---------------------------------------------------------------------------|


C#|---------------------------------------------------------------------------|
G#|---------------------------------------------------------------------------|
E |-16-16b17-16\14-14-14\12--------------------------12-14~~--12-14----1212/14|
B |-------------------------14-12b14r12-10--10-12/14----------------14--------|
F#|---------------------------------------------------------------------------|
C#|---------------------------------------------------------------------------|

C#|--------------------------------------------------------------3------------|
G#|------------------------------------------------------------5---5-3--------|
E |-14~~14~~14\12---12-10-9-10b12~~~12r10 10-9-9\7-7-5-4-5b7b8~---------5-----|
B |---------------------------------------------------------------------------|
F#|---------------------------------------------------------------------------|
C#|---------------------------------------------------------------------------|

C#|---------------------------------------------------------------------------|
G#|---------------------------------------------------------------------------|
E |---4~-4~-5~-7b8\-----------------------------------------------------------|
B |---------------------------------------------------------------------------|
F#|---------------------------------------------------------------------------|
C#|---------------------------------------------------------------------------|


************************************

| x   Dead note
| g   Grace note
| (n) Ghost note
| h   Hammer-on
| p   Pull-off
| r   Release
| >   Accented note
| t   Tapping
| b   Bend
| br  Bend release
| pb  Pre-bend
| pbr Pre-bend release
| /   Slide up
| \   Slide down
| ~   Vibrato
| s   Slap
| P   Pop
| PM  Palm mute
| TR  Trill
| N   Tremolo

************************************
Suggest correction
Creating personal tab
Creating personal tab
You can edit any tab online and save it as your Personal.

You can edit, replace or remove any tab part or add personal notes – all changes will be seen only by you.

Personal tabs can be accessed anytime from any device, even offline.
Learn more »
Give kudos to tab author, rate the tab!
1 2 3 4 5
comments
print report bad tab
1 comment total.
0 reply
Nthulu 11 Jun 25, 2016 10:43 AM

This is really well done and very accurate!

Well done!

guest
You may want to rate the tab now too:
select rating
Wanna post a correction for this tab? Suggest correction