Oops, an error
Loading. Please wait.

Valley Of The Dolls tab

529 views 9 this week
1 commentread comment
1 2 3 4 5
x 3
add to favorites
×
Save as Personal and add changes to this tab that will be seen only by you. Learn more ›
×
You can save this tab as Personal to edit and correct it or add notes. All changes will be seen only by you. Learn more »
launch autoscroll
font size
0
reset
how to read this tab
guitar tuner
edit
Autoscroll
slow
fast
+/-
esc
set tempo
stop
My first full song tab, please leave feedback.

[Intro]

C#|---------------------------------------------------------------------------|
G#|---------------------------------------------------------------------------|
E |---------------------------------------------------------------------------|
B |---------------------------------------------------------------------------|
F#|---------------------------------------------------------------------------| (bend behind nut or use
C#|-3-3-3/7-7-7/12-12-12-12b13~~~12\--0-3-3-3/7-7-7-0b1r0---------------------| whammy bar if you have one)

C#|---------------------------------------------------------------------------|
G#|---------------------------------------------------------------------------|
E |---------------------------------------------------------------------------|
B |---------------------------------------------------------------------------|
F#|-12/14-14--14/17-17\14-----------------------------------------------------|
C#|-10/12-12--12/15-15\12-----------------------------------------------------|

[Verse]

C#|---------------------------------------------------------------------------|
G#|---------------------------------------------------------------------------|
E |---------------------------------------------------------------------------|
B |-5-5-5/9-9-9-14-14-14-14b15~~~14\----5-5-5/9-9-9-2b3r2---------------------|
F#|-5-5-3/9-9-9/14-14-14-14b15~~~14\----5-5-5/9-9-9-2b3r2---------------------|
C#|-3-3-3/7-7-7/12-12-12-12b13~~~12\----3-3-3/7-7-7-0-------------------------|

C#|---------------------------------------------------------------------------|
G#|---------------------------------------------------------------------------|
E |---------------------------------------------------------------------------|
B |---------------------------------------------------------------------------|
F#|-12/14-14--14/17-17\14-----------------------------------------------------|
C#|-10/12-12--12/15-15\12-----------------------------------------------------|

[Chorus]

C#|---------------------------------------------------------------------------|
G#|---------------------------------------------------------------------------|
E |---------------------------------------------------------------------------|
B |---------------------------------------------------------------------------|
F#|------7~~6~~~~------------/7-6-7-7~~------7~~6~~~~----------------5-7------|
C#|-5~~~~--------7-9~~~~~~~-------------5~~~~--------7-9~~~~~-5-7-8-----------|

C#|---------------------------------------------------------------------------|
G#|---------------------------------------------------------------------------|
E |---------------------------------------------------------------------------|
B |---------------------------------------------------------------------------|
F#|------7~~6~~~~------------/7-6-7-7~~------7~~6~~~~----------------5-7------|
C#|-5~~~~--------7-9~~~~~~~-------------5~~~~--------7-9~~~~~-5-7-8-----------|

[Verse]

C#|---------------------------------------------------------------------------|
G#|---------------------------------------------------------------------------|
E |---------------------------------------------------------------------------|
B |-5-5-5/9-9-9-14-14-14-14b15~~~14\----5-5-5/9-9-9-2b3r2---------------------|
F#|-5-5-3/9-9-9/14-14-14-14b15~~~14\----5-5-5/9-9-9-2b3r2---------------------|
C#|-3-3-3/7-7-7/12-12-12-12b13~~~12\----3-3-3/7-7-7-0-------------------------|

C#|---------------------------------------------------------------------------|
G#|---------------------------------------------------------------------------|
E |---------------------------------------------------------------------------|
B |---------------------------------------------------------------------------|
F#|-12/14-14--14/17-17\14-----------------------------------------------------|
C#|-10/12-12--12/15-15\12-----------------------------------------------------|

C#|---------------------------------------------------------------------------|
G#|---------------------------------------------------------------------------|
E |---------------------------------------------------------------------------|
B |-5-5-5/9-9-9-14-14-14-14b15~~~14\----5-5-5/9-9-9-2b3r2---------------------|
F#|-5-5-3/9-9-9/14-14-14-14b15~~~14\----5-5-5/9-9-9-2b3r2---------------------|
C#|-3-3-3/7-7-7/12-12-12-12b13~~~12\----3-3-3/7-7-7-0-------------------------|

C#|---------------------------------------------------------------------------|
G#|---------------------------------------------------------------------------|
E |---------------------------------------------------------------------------|
B |---------------------------------------------------------------------------|
F#|-12/14-14--14/17-17\14-----------------------------------------------------|
C#|-10/12-12--12/15-15\12-----------------------------------------------------|

[Chorus]

C#|---------------------------------------------------------------------------|
G#|---------------------------------------------------------------------------|
E |---------------------------------------------------------------------------|
B |---------------------------------------------------------------------------|
F#|------7~~6~~~~------------/7-6-7-7~~------7~~6~~~~----------------5-7------|
C#|-5~~~~--------7-9~~~~~~~-------------5~~~~--------7-9~~~~~-5-7-8-----------|

C#|---------------------------------------------------------------------------|
G#|---------------------------------------------------------------------------|
E |---------------------------------------------------------------------------|
B |---------------------------------------------------------------------------|
F#|------7~~6~~~~------------/7-6-7-7~~------7~~6~~~~----------------5-7------|
C#|-5~~~~--------7-9~~~~~~~-------------5~~~~--------7-9~~~~~-5-7-8-----------|

[Solo]

C#|---------------------------------------------------------------------------|
G#|------------------------------------------------8-10-10b12~~~-10b12r10-8-7-|
E |-----------------------------------7-99----7/9-----------------------------|
B |---------------------------5-7-7/9-----------------------------------------|
F#|-----------5---5-7b8r7-5/7-------------------------------------------------|
C#|--3--3h5/7---7-------------------------------------------------------------|

C#|----------------------------12-12--------12-14-15h14p15--15p14p12----------|
G#|-7h8p7-------------------12-----------12--------------------------15-12----|
E |-------9-7-9b11r9----/12----------/12--------------------------------------|
B |---------------------------------------------------------------------------|
F#|---------------------------------------------------------------------------|
C#|---------------------------------------------------------------------------|

C#|---------------------------------------15----------------------------------|
G#|--15b17r15--12-15b17-15p14p12----------------------------------------------|
E |------------------------------14-14b16----14b16~~~r---/11-12-14-14b16~~~---|
B |---------------------------------------------------------------------------|
F#|---------------------------------------------------------------------------|
C#|---------------------------------------------------------------------------|

C#|---------------------------------------------------------------------------|
G#|---------------------------------------------------------------------------|
E |--14b16r14-12-11--11h12p11--------------------7h9-9p7----------------------|
B |---------------------------14-12-14b16r14-------------9/7-5----------------|
F#|------------------------------------------------------------7--------------|
C#|---------------------------------------------------------------------------|

[Chorus]

C#|---------------------------------------------------------------------------|
G#|---------------------------------------------------------------------------|
E |---------------------------------------------------------------------------|
B |---------------------------------------------------------------------------|
F#|------7~~6~~~~------------/7-6-7-7~~------7~~6~~~~----------------5-7------|
C#|-5~~~~--------7-9~~~~~~~-------------5~~~~--------7-9~~~~~-5-7-8-----------|

C#|---------------------------------------------------------------------------|
G#|---------------------------------------------------------------------------|
E |---------------------------------------------------------------------------|
B |---------------------------------------------------------------------------|
F#|------7~~6~~~~------------/7-6-7-7~~------7~~6~~~~----------------5-7------|
C#|-5~~~~--------7-9~~~~~~~-------------5~~~~--------7-9~~~~~-5-7-8-----------|

[Outro]

C#|---------------------------------------------------------------------------|
G#|---------------------------------------------------------------------------|
E |-12----11------------------12-----11---------------------------------------|
B |-12----11------------------12-----11---------------------------------------|
F#|-10----9-------------------10-----9----------------------------------------|
C#|----0-0---0-0-0(let ring)-----0-0----0-3-2-0-------------------------------|

C#|---------------------------------------------------------------------------|
G#|---------------------------------------------------------------------------|
E |-12----11-----------------12-----11----------------------------------------|
B |-12----11-----------------12-----11----------------------------------------|
F#|-10----9------------------10-----9-----------------------------------------|
C#|----0-0---0-0-0(let ring)----0-0----0-3/5----------------------------------|

C#|---------------------------------------------------------------------------|
G#|---------------------------------------------------------------------------|
E |-12----11------------------12-----11---------------------------------------|
B |-12----11------------------12-----11---------------------------------------|
F#|-10----9-------------------10-----9----------------------------------------|
C#|----0-0---0-0-0(let ring)-----0-0----0-3-2-0-------------------------------|

C#|---------------------------------------------------------------------------|
G#|---------------------------------------------------------------------------|
E |-12----11------------------12----------------------------------------------|
B |-12----11------------------12----------------------------------------------|
F#|-10----9-------------------10----------------------------------------------|
C#|----0-0---0-0-0(let ring)-----0-0------------------------------------------|

[Outro - Part 2]

C#|---------------------------------------------------------------------------|
G#|---------------------------------------------------------------------------|
E |---------------------------------------------------------------------------| Listen to song for timing.
B |-10---------------12--7--10------------------12--7---10--------------------|
F#|-10---22--7--2----10--5--10---22-----7--2----10--5---10--22----------------|
C#|-8----20--0--0----10--5--8----20-----0--0----10--5---8---20----------------|

C#|---------------------------------------------------------------------------|
G#|---------------------------------------------------------------------------|
E |--------------------------Chord keeps repeating until end of song----------| 
B |---------------------------------------------------------------------------|
F#|-----7-7----5h7------2-----------------------------------------------------|
C#|-----0-0----0--------0-----------------------------------------------------|

************************************

| x   Dead note
| g   Grace note
| (n) Ghost note
| h   Hammer-on
| p   Pull-off
| r   Release
| >   Accented note
| t   Tapping
| b   Bend
| br  Bend release
| pb  Pre-bend
| pbr Pre-bend release
| /   Slide up
| \   Slide down
| ~   Vibrato
| s   Slap
| P   Pop
| PM  Palm mute
| TR  Trill
| N   Tremolo

************************************

            
            
Suggest correction
Creating personal tab
Creating personal tab
You can edit any tab online and save it as your Personal.

You can edit, replace or remove any tab part or add personal notes – all changes will be seen only by you.

Personal tabs can be accessed anytime from any device, even offline.
Learn more »
Give kudos to tab author, rate the tab!
1 2 3 4 5
comments
print report bad tab
1 comment total.
+1 reply
Nthulu 11 Jun 27, 2016 10:06 AM

Perfect tab, great job!

guest
You may want to rate the tab now too:
select rating
Wanna post a correction for this tab? Suggest correction