Oops, an error
Loading. Please wait.

Follow Me Tab

version 1
version 1
91,466 views 39 this week
6 commentsread comments
1 2 3 4 5
x 13
add to favorites
launch autoscroll
font size
0
reset
how to read this tab
guitar tuner
Autoscroll
slow
fast
+/-
esc
set tempo
stop
Help us to improve Ultimate-Guitar.com Take our survey!
×
Song: Follow me
Artist: Uncle Kracker
Tabbed by: Christian Go
Tuning: Standard

e|--5-h-7-5--3-3-------5-7(b)--5-h-7--3-3------5-3(b)-|
B|---------------5-3-----------------------5-3--------|
G|----------------------------------------------------|
D|----------------------------------------------------|
A|----------------------------------------------------|
E|----------------------------------------------------|

************************************

| h  Hammer-on
| (b)Bend

************************************
Suggest correction
comments
print report bad tab
6 comments total. Showing first comments.
0 reply
thm_05 30 Oct 18, 2003 12:00 AM

|--3-h-5-3--1-1-------3-5(b)--3-h-5--1-1------3-1(b)-
|---------------3-1-----------------------3-1--------
|----------------------------------------------------
|----------------------------------------------------
|----------------------------------------------------
|----------------------------------------------------

0 reply
thm_05 30 Oct 18, 2003 12:00 AM

try playing like that;
|--3-h-5-3--1-1-------3-5(b)--3-h-5--1-1------3-1(b)-
|---------------3-1-----------------------3-1--------
|----------------------------------------------------
|----------------------------------------------------
|----------------------------------------------------
|----------------------------------------------------

0 reply
thm_05 30 Oct 18, 2003 12:00 AM

oops

guest
You may want to rate the tab now too:
select rating
Wanna post a correction for this tab? Suggest correction