Oops, an error
Loading. Please wait.

Follow Me Tab

version 2
version 2
92,767 views 18 this week
11 commentsread comments
1 2 3 4 5
x 41
add to favorites
launch autoscroll
font size
0
reset
how to read this tab
guitar tuner
Autoscroll
slow
fast
+/-
esc
set tempo
stop
Help us to improve Ultimate-Guitar.com Take our survey!
×
Author
This is my first tab, so let me know if you think it sounds right.....

e|--------------------------|----------------------|
B|--------------------------|----------------------|
G|--------------------------|----------------------|
D|-----------------------2--|----------------------|
A|----3-5-3\1----1----------|-----1/3----1---------|
E|----3h5p3\1----1----------|-----1/3----1---------|

e|--------------------------|----------------------|
B|--------------------------|----------------------|
G|--------------------------|----------------------|
D|-----------------------2--|----------------------|
A|-------------3----3\1-----|----------------------|
E|----3h5p3\1----1----------|-----1/3----1---------|


************************************

| h  Hammer-on
| p  Pull-off
| /  Slide up
| \  Slide down

************************************
Suggest correction
comments
print report bad tab
11 comments total. Showing first comments. show 2 bad comments
+1 reply
capsrule 10 Aug 21, 2003 12:00 AM

u got the strings flipped, read the how
to tab thing before u tab next time

guest
You may want to rate the tab now too:
select rating
Wanna post a correction for this tab? Suggest correction