Oops, an error
Loading. Please wait.

Follow Me Tab

version 3
version 3
31,182 views 6 this week
5 commentsread comments
1 2 3 4 5
x 3
add to favorites
launch autoscroll
font size
0
reset
how to read this tab
guitar tuner
Autoscroll
slow
fast
+/-
esc
set tempo
stop
Help us to improve Ultimate-Guitar.com Take our survey!
×
Author
I GOT THIS STRAIT OUT OF THE BOOK I BOUGHT!
IT IS PRETTY EASY I LEARNED IT IN ABOUT 10 MINUTES!

E-3h63-1---------3-3\5----3h63-1----------1h2-1------------------------------|
B--------3-1-----------------------3-1---------------------------------------|
G-------------2------------------------2-------------------------------------|
D----------------------------------------------------------------------------|
A----------------------------------------------------------------------------|
E----------------------------------------------------------------------------|
Suggest correction
Give kudos to tab author, rate the tab!
1 2 3 4 5
comments
print report bad tab
5 comments total. Showing first comments.
0 reply
RootsReggae91 10 Oct 22, 2009 11:43 AM

it's not bad, but i think not completely right. i had to change it a bit...

0 reply
RootsReggae91 10 Oct 22, 2009 11:51 AM

E-3h63-1---1--------3-3\5----3h63-1---1--------1h2-1------------------|
B--------3---3-1--------------------3---3-1---------------------------|
G----------------2---------------------------2------------------------|
D---------------------------------------------------------------------|
A---------------------------------------------------------------------|
E---------------------------------------------------------------------|

0 reply
Grim_Reaper_33 10 Nov 17, 2009 06:05 PM

I think RootsReggae91 is right, but i think it should be 1h3-1 at the ending:

E-3h63-1---1--------3-3\5----3h63-1---1--------1h3-1------------------|
B--------3---3-1--------------------3---3-1---------------------------|
G----------------2---------------------------2------------------------|
D---------------------------------------------------------------------|
A---------------------------------------------------------------------|

guest
You may want to rate the tab now too:
select rating
Wanna post a correction for this tab? Suggest correction