Oops, an error
Loading. Please wait.

Follow Me Tab

version 1
version 1

Interactive

311,106 views 177 this week
10 commentsread comments
1 2 3 4 5
x 56
add to favorites
launch autoscroll
font size
0
reset
how to read this tab
guitar tuner
Autoscroll
slow
fast
+/-
esc
set tempo
stop
Help us to improve Ultimate-Guitar.com Take our survey!
×
e|-----------------------------------------------------|
B|--8h10--8\\6-----6------------8---8h10---------------|
G|-------------7-----7--5------------------------------|
D|-------------------------7---------------------------|
A|-----------------------------------------------------|
E|-----------------------------------------------------|
 
e|-----------------------------------------------------|
B|--8h10--8p6-----6------------6\\8---6----------------|
G|-------------7-----7--5------------------------------|
D|-------------------------7---------------------------|
A|-----------------------------------------------------|
E|-----------------------------------------------------|



************************************

| h  Hammer-on
| p  Pull-off
| \  Slide down

************************************
Suggest correction
comments
print report bad tab
10 comments total. Showing first comments.
0 reply
Alanis_heaven 0 Apr 19, 2002 12:00 AM

this is the shit mate, good stuff

0 reply
Learn_to_fly 40 May 25, 2006 06:38 AM

awesome, and ridiculously easy! lovin' it!

+1 reply
buzzer2607 61 Jun 18, 2006 06:32 AM

i love you, well done

guest
You may want to rate the tab now too:
select rating
Wanna post a correction for this tab? Suggest correction