Oops, an error
Loading. Please wait.

Follow Me Bass Tab

version 2
version 2

Whole song

Interactive

10,689 views 1 this week
3 commentsread comments
1 2 3 4 5
accurate
x 5
add to favorites
launch autoscroll
font size
0
reset
guitar tuner
Tab Pro tools
  • play this tab
  • loop segment
  • change instrument
  • show fretboard
  • metronome
×
Best way to learn
"Follow Me"
Autoscroll
slow
fast
+/-
esc
set tempo
stop
Contributor
Difficulty
intermediate
Artist: Uncle Kracker
Song: Follow Me
Tuning: Standard E A D G

I'm pretty sure this is correct. If you have any corrections do comment.
The rhythm is hard to pick up but just listen to it, it's not that hard.

I first tried to play this by tab but it was totally wrong and i altered
it completely, so there is no other credit to anyone else but who helped me at college,
thanks to them for the help.

There's no bass until 00:45. (Second Verse: I'm not worried about the ring you wear.... 
get me.)

Symbols (?)
\ - Slide Down
/ - Slide Up
~ - Let Ring


Verse: 00:45 x2
G:-------------------------------------------|
D:-------------------------------------------|
A:-------------------------------------------|
E:-1--1-1--1\5--5-5--5\7--7-7--7--7-7--6-8-1-|

Notes
E:-F--F-F--F\A--A-A--A\B--B-B--B--B-B--A#-C-F

Chorus 01:04 x7
G:------------------------------------------|
D:------------------------------------------|
A:------------------------------------------|
E:-1--1-1--1\5--5-5--5\7--6-8-1-------------|

Notes
E:-F--F-F--F\A--A-A--A\B--A#-C-F------------

Bridge (Won't give you money, can't give you the sky....) 01:41 x1
G:-------------------------------------------------------------------------|
D:-------------------------------------------------------------------------|
A:-------------------------------------------------------------------------|
E:-33333333-88888888-1111111111111111-3333333333333333-8888888888888888----|

Notes
E:-GGGGGGGG-CCCCCCCC-FFFFFFFFFFFFFFFF-GGGGGGGGGGGGGGGG-CCCCCCCCCCCCCCCC----

Chorus 01:58/59 x4
G:------------------------------------------|
D:------------------------------------------|
A:------------------------------------------|
E:-1--1-1--1\5--5-5--5\7--6-8-1-------------|

Notes
E:-F--F-F--F\A--A-A--A\B--A#-C-F------------

Verse 02:17 x2
G:------------------------------------------|
D:------------------------------------------|
A:------------------------------------------|
E:-1~-5~-7~~-6-8-1--------------------------|

Notes
E:-F~-A~-B~~-A#-C-F-------------------------

Chorus 02:35 x12
G:------------------------------------------|
D:------------------------------------------|
A:------------------------------------------|
E:-1--1-1--1\5--5-5--5\7--6-8-1-------------|

Notes
E:-F--F-F--F\A--A-A--A\B--A#-C-F------------

End.

Hope you enjoy it.
Amy x
comments
print report bad tab
3 comments total.
-1 reply
saffiandammi wrote on May 1 2010, 05:07 pm

great tab!! easy to read and correct!! this helped me out majorly!! 5 stars!!

0 reply
RickyRubio wrote on October 5 2015, 11:01 am

Sorry, but this is not right! If your song is in F so it doesn't matter if Dur or moll, there is no B !!! It ic a C !!!

G:---------------------------------------------|
D:---------------------------------------------|
A:---------------------------------------------|
E:-1--1-1--1--5--5-5--5--8--8-8--8--8-8--6-8-1-|

F A C

I III V

0 reply
RickyRubio wrote on October 5 2015, 11:02 am, edited at 11:06 am

Clearly wrong. Sorry, but this is not right! If your song is in F so it doesn't matter if Dur or moll, there is no B !!! It is a C !!!

G:------------------------------------|

D:------------------------------------|

A:------------------------------------|

E:-1-------5-------6-------8-------|

F - A - A# - C

I - III - IV - V

I want to post or [tab]
guest
You may want to rate the tab now too:
select rating
Please do not post tabs as comments. Select "correction" instead!