Oops, an error
Loading. Please wait.

Follow Me Tab

version 6
version 6

Interactive

21,502 views 4 this week
4 commentsread comments
1 2 3 4 5
accurate
x 4
add to favorites
launch autoscroll
font size
0
reset
how to read this tab
guitar tuner
Tab Pro tools
  • play this tab
  • loop segment
  • change instrument
  • show fretboard
  • metronome
×
Best way to learn
"Follow Me"
Autoscroll
slow
fast
+/-
esc
set tempo
stop
Artist    :: Uncle Kracker
Title     :: Follow Me
Submitter :: SonsOfAngels
=======================================

Verse  : C G F G  C G F C
Chorus : C G F G  C G F C
Bridge : F G C F G  F G
=======================================

Intro :
---5h7--5--3-----3-----------5--5/7----|
--------------5-----5--3---------------|
--------------------------4------------|
---------------------------------------|
---------------------------------------|
---------------------------------------|

---5h7--5--3-----3-----------3h5--3----|
--------------5-----5--3---------------|
--------------------------4------------|
---------------------------------------|
---------------------------------------|
---------------------------------------|

Verse 1 :
You dont know how you met me, you dont know why
you cant turn around and say good bye
         C               G              F        G
all you know is when i'm with you, i'll make you free
    C                 G            F           C
and swim through your veins like a fish in the sea
I'm singin,

Chorus :
C      G           F          G
Follow me if everything is alright
C           G           F     C
i'll be the one to tuck in at night
C                  G            F      G
and if you want to leave, i can guarentee
          C        G  F         C
you won't find nobody else like me.

Verse 2 :
I'm not worried about the ring you wear
cause as long as no one know then nobody care
u're feeling guilty and i'm well aware
but you don't look ashamed and baby i'm not scared.
I'm singin,

Repeat Chorus x1

Solo :
---------8-----------------------------|
---8h10-----10--8--6--------6--6/8-----|
----------------------7--5-------------|
---------------------------------------|
---------------------------------------|
---------------------------------------|

---------8-----------------------------|
---8h10-----10--8--6--------6--6/7-----|
----------------------7--5-------------|
---------------------------------------|
---------------------------------------|
---------------------------------------|

---------8-----------------------------|
---8h10-----10--8--6--------6--6/8-----|
----------------------7--5-------------|
---------------------------------------|
---------------------------------------|
---------------------------------------|

---------------------------------------|
---8--8------8h10--10--8--6--6/8--6--6-|
---------10----------------------------|
---------------------------------------|
---------------------------------------|
---------------------------------------|

Bridge :
F                G          C        F   G
Won't give you money, can't give you the sky
F                      G
were better off if you dont ask why
F             G         C      F   G
i'm not the reason that you go astray
F                       G
we'll be alright if you dont't ask me to stay

Repeat Chorus x1

Repeat Verse 1

Repeat Chorus x3

-End-

Here you are... although this is not the original chord
but it sure will do it...!!
-sonsofangelsvs@yahoo.com-
comments
print report bad tab
4 comments total. Showing first comments.
+1 reply
A_BLaCK_DaRK_xx wrote on February 24 2008, 11:58 pm

hello chap the intro seems abit off i dunno how but yeah my sis says so-_- but yeah good tab 4 stars

-1 reply
A_BLaCK_DaRK_xx wrote on February 25 2008, 12:16 am

wait screw my comment she was wrong she cant play guitar worth shit sorry about that i say its all good :D

+1 reply
guitarguy290068 wrote on October 13 2008, 04:48 pm

the intro is off

Intro :
---3h5--3--1-----1-----------3--3/5----|
--------------3-----3--1---------------|
--------------------------2------------|
---------------------------------------|
---------------------------------------|
---------------------------------------|

--3h5--3--1-----1-------------1h3---1--|
--------------3-----3--1---------------|
--------------------------2------------|
---------------------------------------|
---------------------------------------|
---------------------------------------|

I want to post or [tab]
guest
You may want to rate the tab now too:
select rating
Please do not post tabs as comments. Select "correction" instead!