Oops, an error
Loading. Please wait.

Follow Me Tab

version 7
version 7
18,807 views 1 this week
4 commentsread comments
1 2 3 4 5
accurate
x 6
add to favorites
launch autoscroll
font size
0
reset
how to read this tab
guitar tuner
Tab Pro tools
  • play this tab
  • loop segment
  • change instrument
  • show fretboard
  • metronome
×
Best way to learn
"Follow Me"
Autoscroll
slow
fast
+/-
esc
set tempo
stop
Difficulty
novice
Follow Me, Uncle Kracker
this is a really good song to play and is extreamly easy. im 14 and this is my first tab
so i hope its good it sounds right to me. if you need help on the timing i think it
but for better reference listen to the song, please rate me.

intro:

e---------------------------------------|
B---------------------------------------|
G--12h14-12-10----10----------12--12h14-|
D--------------12----12-10--------------|
A--------------------------12-----------|
E---------------------------------------|

e----------------------------------------|
B----------------------------------------|
G--12h14-12-10----10----10----10h12--10~-|
D--------------12----12----12------------|
A----------------------------------------|
E----------------------------------------|

solo:

e---------------------------------------|
B------13-------------------------------|
G--12b----14-12-10----------10--12------|
D------------------12-10-12-------------|
A---------------------------------------|
E---------------------------------------|
<------do this part 3 times-------------|

e---------------------------------------|
B---------------------------------------|
G12b-12b-12b-10-------12----10~~~~~~~~~-|
D---------------12-10-------------------|
A---------------------------------------|
E---------------------------------------|

i hope it helps any one along who needs it im pretty sure theres no chords during the 
and chorus.
                     Peace In, Aaron
comments
print report bad tab
4 comments total. Showing first comments.
0 reply
renee1 wrote on April 17 2009, 12:15 am

gee aaron.....i'm 14 too but instead, this is the first song i'm learning... its sound like the song so far so i'm guessing its very accurate. let me be the first to thank and congratulate you. =)
-lisa-

0 reply
wak3b0ard123 wrote on July 5 2009, 03:34 pm

thanks. this is good except 1 thing. idk if it is just my version of the song but[when i listen to the song it doesnt sound right] on the solo[the last part] it should look like this:
e---------------------------------------|
B---------------------------------------|
G12b-12b-12b-10-------12----10~~~~~~~~~-|
D---------------12----------------------|
A---------------------------------------|
E---------------------------------------|
yours looks like this:
e---------------------------------------|
B---------------------------------------|
G12b-12b-12b-10-------12----10~~~~~~~~~-|
D---------------12-10-------------------|
A---------------------------------------|
E---------------------------------------|

0 reply
doompers7491 wrote on August 28 2009, 03:11 pm

the solo is pretty good

I want to post or [tab]
guest
You may want to rate the tab now too:
select rating
Please do not post tabs as comments. Select "correction" instead!