Oops, an error
Loading. Please wait.

Chasing A Buzz bass

221 views 1 this week
2 commentsread comments
1 2 3 4 5
1 last vote to show rating
add to favorites
×
Save as Personal and add changes to this tab that will be seen only by you. Learn more ›
×
You can save this tab as Personal to edit and correct it or add notes. All changes will be seen only by you. Learn more »
launch autoscroll
font size
0
reset
guitar tuner
edit
Autoscroll
slow
fast
+/-
esc
set tempo
stop
Author
Difficulty
-------------------------------------------------------------------------------
			     Chasing A Buzz - Underground Heroes
-------------------------------------------------------------------------------

Tabbed By : J.J.Jolly 

Intro/Verses

G|-----------------------------------|
D|-----------------------------55-55-|
A|-5---3---2-------5---3---2---------|X2
E|-------------0---------------------|

Bridge

G|--------------------------------------|
D|--------------5-----------------------|
A|-555555555555---3-2-55555555----------|
E|-----------------------------55555555-|

Thats All I Know At The Moment, But I Will Be Updating The Song When I Do Find Out!

But For Now, Enjoy!
Suggest correction
Creating personal tab
Creating personal tab
You can edit any tab online and save it as your Personal.

You can edit, replace or remove any tab part or add personal notes – all changes will be seen only by you.

Personal tabs can be accessed anytime from any device, even offline.
Learn more »
Give kudos to tab author, rate the tab!
1 2 3 4 5
comments
print report bad tab
2 comments total.
0 reply
nes84 10 Jul 22, 2008 09:35 AM

G|--------------------------------------|
D|-------------------------------------|
A|-99999999-66666666---------------------------|
E|-------------------77777777--9-9-9-9---------|

G|-----------------------------------|
D|---------------------------------------|
A|-8---6---4-------66--44-22-44-88-9999--6666-44444444-----|
E|-------------7---------------------|

couple of notes missing but this seems pretty spot on to me for most of it

0 reply
nes84 10 Jul 22, 2008 09:37 AM

G|--------------------------------------|
D|-------------------------------------|
A|-99999999-66666666---------------------------|
E|-------------------77777777--9-9-9-9---------|

G|-----------------------------------|
D|---------------------------------------|
A|-8---6---4-------66--44-22-44-66--88-9999--6666-44444444-----|
E|-------------7---------------------|

woops missed a couple of 6's out ;op

guest
You may want to rate the tab now too:
select rating
Wanna post a correction for this tab? Suggest correction