Oops, an error
Loading. Please wait.

Its Kinda Like A Bodybag tab

version 2
version 2

Whole song

Interactive

1,122 views 3 this week
no commentswrite comment
1 2 3 4 5
1 last vote to show rating
add to favorites
×
Save as Personal and add changes to this tab that will be seen only by you. Learn more ›
×
You can save this tab as Personal to edit and correct it or add notes. All changes will be seen only by you. Learn more »
launch autoscroll
font size
0
reset
how to read this tab
guitar tuner
edit
Autoscroll
slow
fast
+/-
esc
set tempo
stop
Author
Difficulty
#----------------------------------PLEASE NOTE---------------------------------#
#This file is the author's own work and represents their interpretation of the #
#song. You may only use this file for private study, scholarship, or research. #
#------------------------------------------------------------------------------##

                           IT'S KINDA LIKE A BODY BAG
                           As recorded by Underminded
                     (From the 2004 Album HAIL UNAMERICAN!)

Words and Music by Underminded
Arranged by Underminded
Transcribed by Jonathan Rose

Gtr I (C G C F A D) - 'Dist. Left'
Gtr II (C G C F A D) - 'Dist. Right'
Gtr III (C G C F A D) - 'Pickscrape'

   Intro
    Dancefight Q=157
    N.C.
   4/4
    Gtrs I, II
    Wx2     5x
||----------||
||o--------o||
||----------||
||----------||
||o--------o||
||----------||


 Intro Part II
  (Dm/F)             D5                          (F)
 2/4                4/4
  Gtr I
                                       PM------|
   S  S  S  S  E E   Q  H.        H    S S S S E  E
|-10-10-10-10-10---|------------|-------------------|
|--x--x--x--x--x---|------------|-------------------|
|--7--7--7--7--7---|------------|----------------14-|
|------------------|-0----------|-----------------x-|
|------------------|-0----------|------0-0-0-0-0-12-|
|------------------|-0----------|------0-0-0-0-0----|
|
| Gtr II
|                                      PM------|
|  S  S  S  S  E E   Q  H.        H    S S S S E  E
|------------------|------------|-------------------|
|------------------|------------|-------------------|
|-10-10-10-10-10---|------------|----------------10-|
|--x--x--x--x--x---|-0----------|-----------------x-|
|--8--8--8--8--8---|-0----------|------0-0-0-0-0--8-|
|------------------|-0----------|------0-0-0-0-0----|


  D5
               PM-----------------|
  Q  H.        S S E Q  S S S S E E
|------------|----------------------|
|------------|----------------------|
|------------|----------------------|
|-0----------|----------------------|
|-0----------|-0-0-0----0-0-0-0-0---|
|-0----------|-0-0-0----0-0-0-0-0---|
|
|              PM---------------|
| Q  H.        S S E Q  S S S S E E
|------------|----------------------|
|------------|----------------------|
|------------|----------------------|
|-0----------|----------------------|
|-0----------|-0-0-0----0-0-0-0-0---|
|-0----------|-0-0-0----0-0-0-0-0---|


  D5                                  (F)
                            PM------|
  e. e. e e. e. e   e. e. e S S S S E  E
|-----------------|----------------------|
|-----------------|----------------------|
|-----------------|-------------------14-|
|-0--0--0-0--0--0-|-0--0--0------------x-|
|-0--0--0-0--0--0-|-0--0--0-0-0-0-0-0-12-|
|-0--0--0-0--0--0-|-0--0--0-0-0-0-0-0----|
|
|                           PM------|
| e. e. e e. e. e   e. e. e S S S S E  E
|-----------------|----------------------|
|-----------------|----------------------|
|-----------------|-------------------10-|
|-0--0--0-0--0--0-|-0--0--0------------x-|
|-0--0--0-0--0--0-|-0--0--0-0-0-0-0-0--8-|
|-0--0--0-0--0--0-|-0--0--0-0-0-0-0-0----|


  D5                        N.C.
                                         2/4
  e. e. e e. e. e   e. e. e  E E  E   E    +E   E Q
|-----------------|---------------------|-------------||
|-----------------|---------------------|-------------||
|-----------------|---------------------|-------------||
|-0--0--0-0--0--0-|-0--0--0-------------|-------------||
|-0--0--0-0--0--0-|-0--0--0-/8-7----/12-|-(12)-10-8---||
|-0--0--0-0--0--0-|-0--0--0------10-----|-------------||
|
| e. e. e e. e. e   e. e. e  H              H
|-----------------|---------------------|-------------||
|-----------------|---------------------|-------------||
|-----------------|---------------------|-------------||
|-0--0--0-0--0--0-|-0--0--0-------------|-------------||
|-0--0--0-0--0--0-|-0--0--0-------------|-------------||
|-0--0--0-0--0--0-|-0--0--0-------------|-------------||


   Part C
    D5                        N.C.
   4/4
    PM--------------------|
    S S S S S S S S e. e. e     E  E  E   Q   E Q
||--------------------------|----------------------|
||o-------------------------|----------------------|
||--------------------------|----------------------|
||--------------------------|-/12-10--8--10---8-7--|
||o-0-0-0-0-0-0-0-0-0--0--0-|----------------------|
||--0-0-0-0-0-0-0-0-0--0--0-|----------------------|
|
|   PM--------------------|
|   S S S S S S S S e. e. e     E  E  E   Q   E Q
||--------------------------|----------------------|
||o-------------------------|----------------------|
||--------------------------|----------------------|
||--------------------------|----------------------|
||o-0-0-0-0-0-0-0-0-0--0--0-|--/8--7----/12--10-8--|
||--0-0-0-0-0-0-0-0-0--0--0-|--------10------------|


  D5                        N.C.
  PM--------------------|
  S S S S S S S S e. e. e     E  E  E   Q   E Q
|-------------------------|-----------------------||
|-------------------------|----------------------o||
|-------------------------|-----------------------||
|-------------------------|-/12-10--8--10---8-7---||
|-0-0-0-0-0-0-0-0-0--0--0-|----------------------o||
|-0-0-0-0-0-0-0-0-0--0--0-|-----------------------||
|
| PM--------------------|
| S S S S S S S S e. e. e     E  E  E   Q   E Q
|-------------------------|-----------------------||
|-------------------------|----------------------o||
|-------------------------|-----------------------||
|-------------------------|-----------------------||
|-0-0-0-0-0-0-0-0-0--0--0-|--/8--7----/12--10-8--o||
|-0-0-0-0-0-0-0-0-0--0--0-|--------10-------------||


 Part D
  D5                                                           N.C.
  Gtrs I, II                                                   Gtr I
  q.   e e. e. E   +E  H..         q.   e e. e. E   +E  H    E  Q
|----------------|---------------|----------------|-----------------|
|----------------|---------------|----------------|-----------------|
|----------------|---------------|----------------|-----------------|
|-0----0-0--0--0-|-(0)-----------|-0----0-0--0--0-|-(0)--------<5>--|
|-0----0-0--0--0-|-(0)-----------|-0----0-0--0--0-|-(0)-------------|
|-0----0-0--0--0-|-(0)-----------|-0----0-0--0--0-|-(0)-------------|


  D5                   (Dm/D5  (Dm/F)D5                   (Dm/D5  (Dm/F)
  Gtr I
                   PM|     PM|                        PM|     PM|
  q.   e e. e. E   E E  Q  E E  Q    q.   e e. e. E   E E  Q  E E  Q
|----------------|-----10------10--|----------------|-----10------10--||
|----------------|------x-------x--|----------------|------x-------x--||
|----------------|------7-------7--|----------------|------7-------7--||
|-0----0-0--0--0-|-----------------|-0----0-0--0--0-|-----------------||
|-0----0-0--0--0-|-0-0-----0-0-----|-0----0-0--0--0-|-0-0-----0-0-----||
|-0----0-0--0--0-|-0-0-----0-0-----|-0----0-0--0--0-|-0-0-----0-0-----||
|
| Gtr II
|                  PM|     PM|                        PM|     PM|
| q.   e e. e. E   E E  Q  E E  Q    q.   e e. e. E   E E  Q  E E  Q
|----------------|-----------------|----------------|-----------------||
|----------------|-----------------|----------------|-----------------||
|----------------|-----10------10--|----------------|-----10------10--||
|-0----0-0--0--0-|------x-------x--|-0----0-0--0--0-|------x-------x--||
|-0----0-0--0--0-|-0-0--8--0-0--8--|-0----0-0--0--0-|-0-0--8--0-0--8--||
|-0----0-0--0--0-|-0-0-----0-0-----|-0----0-0--0--0-|-0-0-----0-0-----||


 Part E
  D5                                                  N.C.
                                                       PM----------------|
  q.   H    E   q.   E  H        q.   e e. e. E   +E   S  S  E E  E E  E E
|-------------|----------------|----------------|--------------------------|
|-------------|----------------|----------------|--------------------------|
|-------------|----------------|----------------|--------------------------|
|-0---------0-|-0--------------|-0----0-0--0--0-|-(0)-12-12-12-7-10-8------|
|-0---------0-|-0------12\-----|-0----0-0--0--0-|-(0)-----------------10-8-|
|-0---------0-|-0------12\-----|-0----0-0--0--0-|-(0)----------------------|
|
|                                                      PM----------------|
| q.   H    E   q.   H       E   q.   e e. e. E   +E   S  S  E E  E E  E E
|-------------|----------------|----------------|--------------------------|
|-------------|----------------|----------------|--------------------------|
|-------------|----------------|----------------|--------------------------|
|-0---------0-|-0--------------|-0----0-0--0--0-|-(0)--8--8--8----7-5------|
|-0---------0-|-0--------------|-0----0-0--0--0-|-(0)----------8-------7-5-|
|-0---------0-|-0--------------|-0----0-0--0--0-|-(0)----------------------|


                                              Build Up
                                               Get Ready Q=143
  D5                   N.C.                    D5
                        PM----------------|
  q.   e e. e. E   +E   S  S  E E  E E  E E    W          +W
|----------------|--------------------------||----------|--------|
|----------------|--------------------------||----------|--------|
|----------------|--------------------------||----------|--------|
|-0----0-0--0--0-|-(0)-12-12-12-7-10-8------||-0--------|-(0)----|
|-0----0-0--0--0-|-(0)-----------------10-8-||-0--------|-(0)----|
|-0----0-0--0--0-|-(0)----------------------||-0--------|-(0)----|
|
|                       PM----------------|
| q.   e e. e. E   +E   S  S  E E  E E  E E    W          +W
|----------------|--------------------------||----------|--------|
|----------------|--------------------------||----------|--------|
|----------------|--------------------------||----------|--------|
|-0----0-0--0--0-|-(0)--8--8--8----7-5------||-0--------|-(0)----|
|-0----0-0--0--0-|-(0)----------8-------7-5-||-0--------|-(0)----|
|-0----0-0--0--0-|-(0)----------------------||-0--------|-(0)----|


  D
  Gtr I
  E  E  E  E  S  E  E.  E    E   E  E  E  S  E  E.  E
|---10-------10s17-13-----|-----10-------10s17-13-----|
|------10--------------15-|--------10--------------15-|
|---------10--------------|-----------10--------------|
|-------------------------|---------------------------|
|-------------------------|---------------------------|
|-------------------------|---------------------------|
|
| Gtr II
|                            >
| W                         +W
|-------------------------|---------------------------|
|-------------------------|---------------------------|
|-7-----------------------|-(7)-----------------------|
|-0-----------------------|-(0)-----------------------|
|-0-----------------------|-(0)-----------------------|
|-0-----------------------|-(0)-----------------------|
|
| Gtr III
| W                          W
|-------------------------|---------------------------|
|-------------------------|---------------------------|
|-------------------------|---------------------------|
|-------------------------|---------------------------|
|-------------------------|---------------------------|
|-------------------------|---------------------------|


   E   E  E  E  S  E  E.  E    E    E    E    E    S  E    E.     E
|-----10-------10s17-13-----|------10-------------10s17---13------------|
|--------10--------------15-|-----------10-----------------------15-----|
|-----------10--------------|----------------10-------------------------|
|---------------------------|-------------------------------------------|
|---------------------------|-------------------------------------------|
|---------------------------|-------------------------------------------|
|
| +W                          +W
|---------------------------|-------------------------------------------|
|---------------------------|-------------------------------------------|
|-(7)-----------------------|-(7)---------------------------------------|
|-(0)-----------------------|-(0)---------------------------------------|
|-(0)-----------------------|-(0)---------------------------------------|
|-(0)-----------------------|-(0)---------------------------------------|
|
|                              TPTP TPTP TPTP TPTP TP TPTP TPTPTP TPTP
|  W                           S S  S S  S S  S S  S  S S  S S S  S S
|---------------------------|-------------------------------------------|
|---------------------------|-------------------------------------------|
|---------------------------|-------------------------------------------|
|---------------------------|-------------------------------------------|
|---------------------------|--xSxS=xSxS=xSxS=xSxS=xS=xSxS=xSxSxS=xSx\--|
|---------------------------|--xSxS=xSxS=xSxS=xSxS=xS=xSxS=xSxSxS=xSx\--|


  D5
  Gtr I
  E  E  E  E  S  E    E.    E   E  E  E  E  S  E    E.    E
|---10-------10s17---13-------|---10-------10s17---13-------|
|------10------------------15-|------10------------------15-|
|---------10------------------|---------10------------------|
|-----------------------------|-----------------------------|
|-----------------------------|-----------------------------|
|-----------------------------|-----------------------------|
|
| Gtr II
| PM---------------------------------------------------------
| E  E  E  E  E    E     E  E   E  E  E  E  E    E     E  E
|-----------------------------|-----------------------------|
|-----------------------------|-----------------------------|
|-----------------------------|-----------------------------|
|-----------------------------|-----------------------------|
|-0--0--0--0--0----0-----0--0-|-0--0--0--0--0----0-----0--0-|
|-0--0--0--0--0----0-----0--0-|-0--0--0--0--0----0-----0--0-|


  E  E  E  E  S  E    E.    E   E  E  E  E  S  E     E.  E
|---10-------10s17---13-------|---10-------10s17----13-------||
|------10------------------15-|------10-----------------15---||
|---------10------------------|---------10-------------------||
|-----------------------------|------------------------------||
|-----------------------------|------------------------------||
|-----------------------------|------------------------------||
|
|------------------------------------------|
| E  E  E  E  E    E     E  E   E  E  E  E  E    Q.
|-----------------------------|------------------------------||
|-----------------------------|------------------------------||
|-----------------------------|------------------------------||
|-----------------------------|------------------------------||
|-0--0--0--0--0----0-----0--0-|-0--0--0--0--0----------------||
|-0--0--0--0--0----0-----0--0-|-0--0--0--0--0----------------||


   *Breakdown*
    D5                      N.C.
    Gtr I
    PM--------------------|
    S e. S e. E S E S E   E  E    E  E  S  E  E.  E
||----------------------|---10---------10s17-13-----|
||o---------------------|--------10--------------15-|
||----------------------|-----------10--------------|
||----------------------|---------------------------|
||o-0-0--0-0----0-0-0-0-|-0-------------------------|
||--0-0--0-0----0-0-0-0-|-0-------------------------|
|
|   Gtr II
|   PM--------------------|
|   S e. S e. E S E S E   E  H..
||----------------------|---------------------------|
||o---------------------|---------------------------|
||----------------------|---------------------------|
||----------------------|---------------------------|
||o-0-0--0-0----0-0-0-0-|-0-------------------------|
||--0-0--0-0----0-0-0-0-|-0-------------------------|


  D5                            (BD5        (BD5(Bb)
                                           2/4
  PM--------------------------|   PM----|     PM
  S e. S e. E S E S E   S E S E E e. e. E   E E Q
|---------------------|-------------------|-----------||
|---------------------|-------------------|----------o||
|---------------------|---------7---------|-7---7-----||
|---------------------|---------x---------|-x---x-----||
|-0-0--0-0----0-0-0-0-|-0-0-0-0-5-0--0--0-|-5-0-5----o||
|-0-0--0-0----0-0-0-0-|-0-0-0-0---0--0--0-|---0-------||
|
| PM--------------------------|   PM----|     PM
| S e. S e. E S E S E   S E S E E e. e. E   E E Q
|---------------------|-------------------|-----------||
|---------------------|-------------------|----------o||
|---------------------|---------3---------|-3---3-----||
|---------------------|---------x---------|-x---x-----||
|-0-0--0-0----0-0-0-0-|-0-0-0-0-1-0--0--0-|-1-0-1----o||
|-0-0--0-0----0-0-0-0-|-0-0-0-0---0--0--0-|---0-------||


    D5
   4/4
    PM--------------------|             PM-------------------
    S e. S e. E S E S E   E H..         S e. S e. E S E S E
||----------------------|-------------|---------------------|
||o---------------------|-------------|---------------------|
||----------------------|-------------|---------------------|
||----------------------|-------------|---------------------|
||o-0-0--0-0----0-0-0-0-|-0-----------|-0-0--0-0----0-0-0-0-|
||--0-0--0-0----0-0-0-0-|-0-----------|-0-0--0-0----0-0-0-0-|
|
|   PM--------------------|             PM-------------------
|   S e. S e. E S E S E   E H..         S e. S e. E S E S E
||----------------------|-------------|---------------------|
||o---------------------|-------------|---------------------|
||----------------------|-------------|---------------------|
||----------------------|-------------|---------------------|
||o-0-0--0-0----0-0-0-0-|-0-----------|-0-0--0-0----0-0-0-0-|
||--0-0--0-0----0-0-0-0-|-0-----------|-0-0--0-0----0-0-0-0-|


                           (Dm/D5    (Dm/F)
               6/4
 -|                  PM--|     PM--|
  E H..         H    S S E  Q  S S E  Q
|-------------|------------10--------10-----||
|-------------|-------------x---------x----o||
|-------------|-------------7---------7-----||
|-------------|-----------------------------||
|-0-----------|------0-0-0-----0-0-0-------o||
|-0-----------|------0-0-0-----0-0-0--------||
|
|-|                  PM--|     PM--|
| E H..         H    S S E  Q  S S E  Q
|-------------|-----------------------------||
|-------------|----------------------------o||
|-------------|------------10--------10-----||
|-------------|-------------x---------x-----||
|-0-----------|------0-0-0--8--0-0-0--8----o||
|-0-----------|------0-0-0-----0-0-0--------||


 Interlude
  D5
 4/4
  Gtr I
    W           +H      Q   Q      Q   H.         +H      +E    Q.
|------------|-----------------|---------------|---------------------|
|------------|-----------------|---------------|---------------------|
|-/14--------|-(14)----12--14--|-/15--14-------|-(14)----(14)-/17----|
|---x--------|--(x)-----x---x--|---x---x-------|--(x)-----(x)---x----|
|-/12--------|-(12)----10--12--|-/13--12-------|-(12)----(12)-/15----|
|------------|-----------------|---------------|---------------------|
|
| Gtr II
|   W           +W                 W              +W
|------------|-----------------|---------------|---------------------|
|------------|-----------------|---------------|---------------------|
|------------|-----------------|---------------|---------------------|
|---0--------|--(0)------------|---0-----------|--(0)----------------|
|---0--------|--(0)------------|---0-----------|--(0)----------------|
|---0--------|--(0)------------|---0-----------|--(0)----------------|


  D5
   W           +H      H       W           W
|-----------|---------------|-----------|--------||
|-----------|---------------|-----------|--------||
|-14--------|-(14)----12----|-10--------|--9-----||
|--x--------|--(x)-----x----|--x--------|--x-----||
|-12--------|-(12)----10----|--8--------|--7-----||
|-----------|---------------|-----------|--------||
|
|  W           +W              W          +W
|-----------|---------------|-----------|--------||
|-----------|---------------|-----------|--------||
|-----------|---------------|-----------|--------||
|--0--------|--(0)----------|--0--------|-(0)----||
|--0--------|--(0)----------|--0--------|-(0)----||
|--0--------|--(0)----------|--0--------|-(0)----||


 Bridge
                            H=H
  (Dm/F)
  Gtr I
   E.  E.  E   E.  E.  E     E.  E.  E   S   S   S   S   q
|-10--10--10--10--10--10--|-10--10--10-----------------------|
|--x---x---x---x---x---x--|--x---x---x-----------------------|
|--7---7---7---7---7---7--|--7---7---7--<7>-<7>-<7>-<7>-<7>--|
|-------------------------|----------------------------------|
|-------------------------|----------------------------------|
|-------------------------|----------------------------------|
|
| Gtr II
|  E.  E.  E   E.  E.  E     E.  E.  E   S   S   S   S   q
|-------------------------|----------------------------------|
|-------------------------|----------------------------------|
|-10--10--10--10--10--10--|-10--10--10--10--10--10--10--10---|
|--x---x---x---x---x---x--|--x---x---x---x---x---x---x---x---|
|--8---8---8---8---8---8--|--8---8---8---8---8---8---8---8---|
|-(0)-(0)-(0)-(0)-(0)-(0)-|-(0)-(0)-(0)-(0)-(0)-(0)-(0)-(0)--|


  Original Tempo Q=157
  D5
  Q  H.        H     S   S   S   S   q
|------------|---------------------------||
|------------|---------------------------||
|------------|------<7>-<7>-<7>-<7>-<7>--||
|-0----------|---------------------------||
|-0----------|---------------------------||
|-0----------|---------------------------||
|
|                    PM-------------|
| Q  H.        H     S   S   S   S   q
|------------|---------------------------||
|------------|---------------------------||
|------------|---------------------------||
|-0----------|---------------------------||
|-0----------|-------0---0---0---0---0---||
|-0----------|-------0---0---0---0---0---||


 Outro
  D5                                  (F)
                            PM------|
  e. e. e e. e. e   e. e. e S S S S E  E
|-----------------|----------------------|
|-----------------|----------------------|
|-----------------|-------------------14-|
|-0--0--0-0--0--0-|-0--0--0------------x-|
|-0--0--0-0--0--0-|-0--0--0-0-0-0-0-0-12-|
|-0--0--0-0--0--0-|-0--0--0-0-0-0-0-0----|
|
|                           PM------|
| e. e. e e. e. e   e. e. e S S S S E  E
|-----------------|----------------------|
|-----------------|----------------------|
|-----------------|-------------------10-|
|-0--0--0-0--0--0-|-0--0--0------------x-|
|-0--0--0-0--0--0-|-0--0--0-0-0-0-0-0--8-|
|-0--0--0-0--0--0-|-0--0--0-0-0-0-0-0----|


  D5                                  (F)
                            PM------|
  e. e. e e. e. e   e. e. e S S S S E  E
|-----------------|----------------------|
|-----------------|----------------------|
|-----------------|-------------------14-|
|-0--0--0-0--0--0-|-0--0--0------------x-|
|-0--0--0-0--0--0-|-0--0--0-0-0-0-0-0-12-|
|-0--0--0-0--0--0-|-0--0--0-0-0-0-0-0----|
|
|                           PM------|
| e. e. e e. e. e   e. e. e S S S S E  E
|-----------------|----------------------|
|-----------------|----------------------|
|-----------------|-------------------10-|
|-0--0--0-0--0--0-|-0--0--0------------x-|
|-0--0--0-0--0--0-|-0--0--0-0-0-0-0-0--8-|
|-0--0--0-0--0--0-|-0--0--0-0-0-0-0-0----|


  (F)                                (Gm)
   e.  e.  e  e.  e.  e    e.  e.  e  S  S  S  S  q
|-----------------------|----------------------------|
|-----------------------|----------------------------|
|-14--14--14-14--14--14-|-14--14--14-15-15-15-15-15--|
|--x---x---x--x---x---x-|--x---x---x--x--x--x--x--x--|
|-12--12--12-12--12--12-|-12--12--12-13-13-13-13-13--|
|-----------------------|----------------------------|
|
|  e.  e.  e  e.  e.  e    e.  e.  e  S  S  S  S  q
|-----------------------|----------------------------|
|-----------------------|----------------------------|
|-10--10--10-10--10--10-|-10--10--10-12-12-12-12-12--|
|--x---x---x--x---x---x-|--x---x---x--x--x--x--x--x--|
|--8---8---8--8---8---8-|--8---8---8-10-10-10-10-10--|
|-----------------------|----------------------------|


  (F)                                (Gm)              N.C.
   e.  e.  e  e.  e.  e    e.  e.  e  S  S  S  S  q    Wx2
|-----------------------|----------------------------|--------*|
|-----------------------|----------------------------|--------*|
|-14--14--14-14--14--14-|-14--14--14-15-15-15-15-15--|--------*|
|--x---x---x--x---x---x-|--x---x---x--x--x--x--x--x--|--------*|
|-12--12--12-12--12--12-|-12--12--12-13-13-13-13-13--|--------*|
|-----------------------|----------------------------|--------*|
|
|  e.  e.  e  e.  e.  e    e.  e.  e  S  S  S  S  q    Wx2
|-----------------------|----------------------------|--------*|
|-----------------------|----------------------------|--------*|
|-10--10--10-10--10--10-|-10--10--10-12-12-12-12-12--|--------*|
|--x---x---x--x---x---x-|--x---x---x--x--x--x--x--x--|--------*|
|--8---8---8--8---8---8-|--8---8---8-10-10-10-10-10--|--------*|
|-----------------------|----------------------------|--------*|


Duration Legend
---------------
W - whole; H - half; Q - quarter; E - 8th; S - 16th; T - 32nd; X - 64th; a - acciaccatura
+ - note tied to previous; . - note dotted; .. - note double dotted
Uncapitalized letters represent notes that are staccato (1/2 duration)
Irregular groupings are notated above the duration line
Duration letters will always appear directly above the note/fret number it represents the
duration for.  Duration letters with no fret number below them represent rests.  Multi-
bar rests are notated in the form Wxn, where n is the number of bars to rest for.  Low
melody durations appear below the staff

Tablature Legend
----------------
 h   - hammer-on
 p   - pull-off
 b   - bend
 pb  - pre-bend
 r   - bend release (if no number after the r, then release immediately)
 /\  - slide into or out of (from/to "nowhere")
 s   - legato slide
 S   - shift slide
  - natural harmonic
[n]  - artificial harmonic
n(n) - tapped harmonic
 ~   - vibrato
 tr  - trill
 T   - tap
 TP  - trem. picking
 PM  - palm muting
\n/  - tremolo bar dip; n = amount to dip
 \n  - tremolo bar down
 n/  - tremolo bar up
/n\  - tremolo bar inverted dip
 =   - hold bend; also acts as connecting device for hammers/pulls
 <>  - volume swell (louder/softer)
 x   - on rhythm slash represents muted slash
 o   - on rhythm slash represents single note slash

Misc Legend
-----------
 |  - bar
||  - double bar
||o - repeat start
o|| - repeat end
*|  - double bar (ending)
 :  - bar (freetime)
 $  - Segno
 &  - Coda
Tempo markers -  = BPM(8/16=s8/s16), where s8 = swing 8ths, s16 = swing 16ths


***************************************************************************************
* Generated using Power Tab Editor by Brad Larsen - http://powertab.guitarnetwork.org *
***************************************************************************************

            
            
Suggest correction
Creating personal tab
Creating personal tab
You can edit any tab online and save it as your Personal.

You can edit, replace or remove any tab part or add personal notes – all changes will be seen only by you.

Personal tabs can be accessed anytime from any device, even offline.
Learn more »
Give kudos to tab author, rate the tab!
1 2 3 4 5
comments
print report bad tab
guest
You may want to rate the tab now too:
select rating
Wanna post a correction for this tab? Suggest correction