Oops, an error
Loading. Please wait.

A Moment Suspended In Time Tab

version 3
version 3

Whole song

Interactive

10,856 views 9 this week
2 commentsread comments
1 2 3 4 5
x 4
add to favorites
launch autoscroll
font size
0
reset
how to read this tab
guitar tuner
×
Best way to learn
"A Moment Suspended In Time"
Autoscroll
slow
fast
+/-
esc
set tempo
stop
Author
Difficulty
Tuning
  follow
intermediate
D A D G B E
Artist: underOATH
Song: A Moment Suspended In Time
Album: Define the Great Line [2006]
Tuning: Dropped D

This tab is only one guitar
It’s what I play when I play along to this song

Intro: [there’s a bunch of lead stuff here that I don’t know]
“Held captive I’m a prisoner...”
E|----------------|
B|6---------------|
G|9-------10--7---|
D|0-------8---5---|
A|0-------8---5---|
D|0-------8---5---|

“There’s nothing left for me here”
E|0--This-is-----
B|6--one guitar--
G|---------------|
D|8--This-is-----|
A|8--the-other---|
D|8--------------|

Chorus:
“I’m clinging on...”/
”It’s all too real...”
E|--------------------------------|
B|--------------------------------|
G|--------------------------------|
D|0-0-0-0---0-0-3---3-3---3-3-3-3-|
A|0-0-0-0---0-0-3---3-3---3-3-3-3-|
D|0-0-0-0---0-0-3---3-3---3-3-3-3-|

“...to what’s left of this hole.”/
”...this can’t be happening.”
E|--------------------------------|
B|--------------------------------|
G|--------------------------------|
D|8-8-8-8---8-8-8-----------------|
A|8-8-8-8---8-8-8-----------------|
D|8-8-8-8---8-8-8-5-5-5-5-5/7-7-7-|

“Never again, ever again...” [w/ the last riff under]
E|17p13----------13-----------|
B|------13h17-13---17---15-17-|
G|----------------------------|
D|----I’m-not-too-sure-about--|
A|----this-part-but-it’s------|
D|----something-like-this-----|

“No time to talk, no time to talk...”
E|-------------------|
B|-------------------|
G|-------------------|
D|--------------10---|
A|---12--8--10-------|
D|8------------------|

“...you know the drill”
E|3---3---3---5---5---5---3/--|
B|--5---5---5---5---5---5-----|
G|----------------------------|
D|----------------------------|
A|----------------------------|
D|----------------------------|

“Under my desk, this can’t be it...”/
“But I can’t get up, no time to talk...”
E|-------------------------------------------------|
B|-------------------------------------------------|
G|777777999999999910101010101012121212121212/141414
D|xxxxxxxxxxxxxxxxx-x-x-x-x-x-x-x-x-x-x-x-x--x-x-x--|
A|55555577777777778-8-8-8-8-8-10101010101010/121212-|
D|--------------------------------------------------|

“...I’ve gotta be dreamin’.
E|-----------------------|
B|------------6666666666-|
G|1010101010109999999999
D|x-x-x-x-x-x-xxxxxxxxxx-|
A|8-8-8-8-8-8-7777777777-|
D|-----------------------|

“...this is my place, this is where I arrange.”
E|--------------------------------------|
B|--------------------------------------|
G|10101010101099999999995555555555555555
D|x-x-x-x-x-x-xxxxxxxxxxxxxxxxxxxxxxxxxx-|
A|8-8-8-8-8-8-77777777773333333333333333-|
D|---------------------------------------|

“It’s so funny how...” “...we see things so clear”
E|----------------     E|-----------------|
B|--66666666666666     B|--66666666666666-|
G|--99999999999999     G|--99999999999999-|
D|0---------------     D|0----------------|
A|0---------------     A|0----------------|
D|0---------------     D|0----------------|

“When we have no time...”
E|----------------------------------|
B|--66--6666666666-------------LEFT-|
G|--99--9999999999--------------TO--|
D|0---0-----------0-0---0------LIVE-|
A|0---0-----------0-0---0------!!!!-|
D|0---0-----------0-0---0-----------|

Breakdown [the greatest one in history IMO might I add]:
E|------------0----|
B|------------6----|
G|-----------------|
D|--8--7--3--0-----|
A|008--7--3--0-7h8-|
D|008--7--3--0-----|

“So lay back now and take it in”
E|-----------------------------------------------------0---|
B|-----------------------------------------------------6---|
G|--10101010101010---1010101010101010101010----------------|
D|0-x-x-x-x-x-x-x-0--x-x-x-x-x-x-x-x-x-x-x---8--7--3--0-0--|
A|0-8-8-8-8-8-8-8-0--8-8-8-8-8-8-8-8-8-8-8-008--7--3--0-0--|
D|0---------------0------------------------008--7--3--0-0--|

“I won’t say a word”
E|-----------------------------------0----|
B|-----------------------------------6----|
G|55555555555555555---555-----------------|
D|xxxxxxxxxxxxxxxxx0--xxx--8--7--3--0-----|
A|333333333333333330--333008--7--3--0-7h8-|
D|-----------------0-----008--7--3--0-----|

“So lay back now and take it in”
E|-----------------------------------------------------0---|
B|-----------------------------------------------------6---|
G|--10101010101010---1010101010101010101010----------------|
D|0-x-x-x-x-x-x-x-0--x-x-x-x-x-x-x-x-x-x-x---8--7--3--0-0--|
A|0-8-8-8-8-8-8-8-0--8-8-8-8-8-8-8-8-8-8-8-008--7--3--0-0--|
D|0---------------0------------------------008--7--3--0-0--|

“I won’t say anything”
E|--------------------------------------|
B|---------------------------------6----|
G|55555555555555555---555----------9b10-|
D|xxxxxxxxxxxxxxxxx0--xxx--8--7--0------|
A|333333333333333330--333008--7--0------|
D|-----------------0-----008--7--0------|

“I can’t believe how it feels...”
E|----------------------|
B|----------------------|
G|----------------------|
D|----(0)-------0-------|
A|-----0-----0--0-------|
D|/7------8-----0-------|

“Under my desk, this can’t be it...”/
“But I can’t get up, no time to talk...”
E|-------------------------------------------------|
B|-------------------------------------------------|
G|777777999999999910101010101012121212121212/141414
D|xxxxxxxxxxxxxxxxx-x-x-x-x-x-x-x-x-x-x-x-x--x-x-x--|
A|55555577777777778-8-8-8-8-8-10101010101010/121212-|
D|--------------------------------------------------|

“...I’ve gotta be dreamin’.
E|-----------------------|
B|------------6666666666-|
G|1010101010109999999999
D|x-x-x-x-x-x-xxxxxxxxxx-|
A|8-8-8-8-8-8-7777777777-|
D|-----------------------|

“...this is my place, this is where I arrange.”
E|--------------------------------------|
B|--------------------------------------|
G|10101010101099999999995555555555555555
D|x-x-x-x-x-x-xxxxxxxxxxxxxxxxxxxxxxxxxx-|
A|8-8-8-8-8-8-77777777773333333333333333-|
D|---------------------------------------|

Keep playing this during the
“I’ve gotta be dreamin’, we’ve gotta be dreamin’.”

Outro:
“This is the end...”
E|----------------------|
B|----------------------|
G|----------------------|
D|----(0)-------0-------|
A|-----0-----0--0-------|
D|/7------8-----0-------|

End on:
E|0---
B|6---
G|9---
D|----
A|----
D|----

That should be pretty close.
It sounds good when I play it at least.
Enjoy.
Suggest correction
comments
print report bad tab
2 comments total.
0 reply
dropdeadjeremy 91 Aug 14, 2008 02:45 PM

i think this is the best tab of anyone ive seen so far, good job. and thanks for labeling the lyrics bc it makes it alot easier to spot out which part of the song to play..

very good tab.. keep them comin

0 reply
ksmash5 50 Sep 16, 2008 08:43 PM

Dude this is an awesome tab. I think you should re tab it all in order though. It's kind of hard to follow.

guest
You may want to rate the tab now too:
select rating
Wanna post a correction for this tab? Suggest correction