Oops, an error
Loading. Please wait.

Acts Of Depression Tab

version 1
version 1

Intro

Whole song

461 views 3 this week
2 commentsread comments
1 2 3 4 5
accurate
x 3
add to favorites
launch autoscroll
font size
0
reset
how to read this tab
guitar tuner
Autoscroll
slow
fast
+/-
esc
set tempo
stop
Help us to improve Ultimate-Guitar.com Take our survey!
×
Author
Difficulty
Tuning
novice
D A D G B E
------------------------------------------
     Underoath - Acts Of Depression
------------------------------------------

This is the intro to the best Old UO song written. The tab i got 
didn't have this part of the intro, so i tabbed it out and I'm 99% 
sure about it. Oh, by the way, guitar is clean for first for riffs,
then change to distortion.

Palm Mute | .
Let ring  | *

1st time thru bass
e||-------------------||
B||-11-12-11----------||
G||-------------------||
d||-------------------||
A||-------------------||
D||-------------------||

2nd time thru bass
e||-----12-13-12------||      (HI)e||11-12-14-12-11-9||  
B||11-12--------12-11-||
G||-------------------||  OR
d||-------------------||
A||-------------------||
D||-------------------||

3rd time bass thru
e||-------------------||
B||--11-12-11---------||
G||-------------------||
d||-------------------||
A||-------------------||
D||-------------------||

4th and final time bass thru (until distortion guitar)
e||-----11-12-11------||
B||-10*---------------||
G||-------------------||
d||-------------------||
A||-------------------||
D||-------------------||

Then, when guitar comes in and drowns the bass out, 
switch to distortion and play these 2 riffs.

e||--------------------------------------||
B||--------------------------------------||
G||--------------------------------------||
d||-4-5-4-0-1------------7-7-7-7-8-8-8-8-||
A||-4-5-4-0-1------------7-7-7-7-8-8-8-8-||
D||-4-5-4-0-1------------7-7-7-7-8-8-8-8-|| x2

e||--------------------------------------||
B||--------------------------------------||
G||--------------------------------------||
d||-4-5-4-0-1------------7-7-7-7-8-8-8-8-||
A||-4-5-4-0-1------------7-7-7-7-8-8-8-8-||
D||-4-5-4-0-1------------7-7-7-7-8-8-8-8-|| x5
Pm  . . . .               

Please send any comments you feel necessary, and also, please rate.
Suggest correction
Give kudos to tab author, rate the tab!
1 2 3 4 5
comments
print report bad tab
2 comments total.
0 reply
deathshredgod 10 wrote on April 15 2007, 06:04 pm

not good

0 reply
SwollenEyeballs 133 wrote on September 11 2008, 04:51 pm

not too bad....but on the 3rd time through its like this.....

[00:12--00:17]
Bass
G||--------------------------------------||
D||--------------------------------------||
A||--------------------------------------||
D||-4-5-4-0-1~~------------------7777888-||
pm| ||
| ||
|Guitar 1 ||
e||--------------------------------------||
B||--11-12-11~~-----------------12~~~----||
G||--------------------------------------||
D||--------------------------------------||
A||--------------------------------------||
D||--------------------------------------||

guest
You may want to rate the tab now too:
select rating
Wanna post a correction for this tab? Suggest correction