Oops, an error
Loading. Please wait.

Casting Such A Thin Shadow tab

version 2
version 2

Whole song

Interactive

12,905 views 6 this week
23 commentsread comments
1 2 3 4 5
x 19
add to favorites
×
Save as Personal and add changes to this tab that will be seen only by you. Learn more ›
×
You can save this tab as Personal to edit and correct it or add notes. All changes will be seen only by you. Learn more »
launch autoscroll
font size
0
reset
how to read this tab
guitar tuner
edit
Autoscroll
slow
fast
+/-
esc
set tempo
stop
Underøath                      *UPDATE 7/18/2008 UPDATE*
Casting Such A Thin Shadow
Tabbed by U B the band
Tuning D A D G B E

Legend
/-slide up     *-harmonics                 (x#)-play the note number amount
\-slide down   |x#-play riff number amount  x-scratch
pm-palm mute

This is my favorite Underøath song and it's fun to play so I hope I did good enough

Intro(keyboard): 00:00
E|---------------------------------------------------------------------|
B|---------------------------------------------------------------------|
G|---------------------------------------------------------------------|
D|---------------------------------------------------------------------|
A|--5-----8-----7---------5-----8-----7----------------5-----3-----12--|
D|-----------------------------------------------3---------------------|

Guitar 1: 00:16
E|---------------------------------------------------------------------|
B|----------------------------------------------------------------3----|
G|--9-/10--9--7-/9--7------9-/10--9--7-/9--7----------------------2----|
D|---------------------7----------------------7------------------------|
A|-------------------------------------------------3-/10---10-\5-------|
D|---------------------------------------------------------------------|

guitar 2: 00:16
E|---------------------------------------------------------------------|
B|---------------------------------------------------------------------|
G|--------------------------------------------12--------10-9-------5-4-|
D|------3-----/10-----12-------3-----/10-------------------------------|
A|--5----------------------5-----------------------3-/10-----10-\5-----|
D|---------------------------------------------------------------------|

guitar 1: 00:33
E|---------------------------------------------------------------------|
B|--------------------------------------------8------------------3-----|
G|--9-/10--9--7-/9--7------9-/10--9-7-/9--7----------------------2-----|
D|---------------------7---------------------7-------------------------|
A|------------------------------------------------3-/10----10-\5-------|
D|---------------------------------------------------------------------|

guitar 2: 00:33
E|---------------------------------------------------------------------|
B|---------------------------------------------------------------------|
G|--------------------12-----------------10-9--5-4-----4-5-5---4-5-5---|
D|------3-----/10----------3-----/10-----------------------------------|
A|--5------------------------------------------------------------------|
D|---------------------------------------------------------------------|

guitar 1: 00:50
E|---------------------------------------------------------------------|
B|----------------------------------------------------------------3----|
G|--9-/10--9--7-/9--7------9-/10--9--7-/9--7----------------------2----|
D|---------------------7----------------------7------------------------|
A|-------------------------------------------------3-/10---10-\5-------|
D|---------------------------------------------------------------------|

guitar 2: 00:50
E|---------------------------------------------------------------------|
B|---------------------------------------------------------------------|
G|--------------------12----------------------12--------10-9-------5-4-|
D|------3-----/10--------------3-----/10-------------------------------|
A|--5----------------------5-----------------------3-/10-----10-\5-----|
D|---------------------------------------------------------------------|

guitar 1: 01:06
E|---------------------------------------------------------------------|
B|----------------------------------------------------------------3----|
G|--9-/10--9--7-/9--7------9-/10--9--7-/9--7----------------------2----|
D|---------------------7----------------------7------------------------|
A|-------------------------------------------------3-/10---10-\5-------|
D|---------------------------------------------------------------------|

guitar 2: 01:06
E|---------------------------------------------------------------------|
B|---------------------------------------------------------------------|
G|--------------------12-----------------10-9--5-4-----4-5-5---4-5-5---|
D|------3-----/10----------3-----/10-----------------------------------|
A|--5------------------------------------------------------------------|
D|---------------------------------------------------------------------|

guitar 2: 01:23
E|---------------------------------------------------------------------|
B|---------------------------------------------------------------------|
G|--------------------------------7-7--5-5-----------------------------|
D|--7------------------------------------------------------------------|
A|-------0-0-0-0-0-0-0-0-0-0-0-0------------0-0-0-0-0------------------|
D|---------------------------------------------------------------------|

E|---------------------------------------------------------------------|
B|---------------------------------------------------------------------|
G|---------------------------------------------------------------------|
D|---------------------------------------------------------------------|
A|-----7---5---7---5---7---5---7---5-----------------------------------|
D|---5---5---5---5---5---5---5---5----3-3-3-3-3-3-3----0---------------|

guitar 1: 01:32
E|-------------------------------------------------12*-----------------|
B|-----13-----12---------13-----12-----13-----12------12*----13-----12-|
G|--9------9----------9------9------9------9--------------9------9-----|
D|---------------------------------------------------------------------|
A|---------------------------------------------------------------------|
D|---------------------------------------------------------------------|

guitar 1: 01:57 (play 3 times)
E|-----------------------------12*-------------------------------12*---|
B|-----13-----12-----13-----12----12*----13-----12-----13-----12----12*|
G|--9------9------9------9------------9------9------9------9-----------|
D|---------------------------------------------------------------------|
A|---------------------------------------------------------------------|
D|---------------------------------------------------------------------|

guitar 2: 01:40                                                      --|
E|--------------------------------------------------------------------||
B|--------------------------------------------------------------------||p
G|-----------------------------------7-7--5-5-------------------------||l
D|--------------------------------------------------------------------||a
A|--0-0-0-0-0-0-0-0-0-0-0-0-0-0-0-0-----------------------------------||y
D|--------------------------------------------------------------------||
                                                                       |3
E|--------------------------------------------------------------------||
B|--------------------------------------------------------------------||t
G|--------------------------------------------------------------------||i
D|--------------------------------------------------------------------||m
A|--------------------------------------------------------------------||e
D|--5-5-5-5-5-5-5-5-5-5-5-5-5-5-5-5--3-3-3-3-3-3-3-----0--------------||s
                                                                     --|
guitar 1: 02:30
E|---------------------------------------------------------------------|
B|----5---5---5---5---5---5---5---5------6-----6-----6-----6-----------|
G|--7---7---7---7---7---7---7---7-----7-----7-----7-----7--------------|
D|---------------------------------------------------------------------|
A|---------------------------------------------------------------------|
D|---------------------------------------------------------------------|

E|---------------------------------------------------------------------|
B|-----6-----6-----6-----6----5---5---5---5---5---5---5----------------|
G|--7-----7-----7-----7-----7---7---7---7---7---7---7------------------|
D|---------------------------------------------------------------------|
A|---------------------------------------------------------------------|
D|---------------------------------------------------------------------|

guitar 1 continued:
E|---------------------------------------------------------------------|
B|-----6-----6-----6-----6-----6-----6-----6-----6---55555555555555----|
G|--7-----7-----7-----7-----7-----7-----7-----7------77777777777777----|
D|---------------------------------------------------------------------|
A|---------------------------------------------------------------------|
D|---------------------------------------------------------------------|

guitar 2: 02:30 palm muted
E|---------------------------------------------------------------------|
B|---------------------------------------------------------------------|
G|---------------------------------------------------------------------|
D|--------------------------7(x8)------9(x4)------10(x4)---------------|
A|--0(x16)------3(x16)------7----------7----------7--------------------|
D|--0-----------3-----------7----------7----------7--------------------|

guitar 2 continued: palm muted
E|---------------------------------------------------------------------|
B|---------------------------------------------------------------------|
G|-----------------------------------------------------------7(x16)----|
D|-------------------------7(x8)------9(x4)------10(x4)------5---------|
A|--5(x16)------3(x16)-----7----------7----------7-----------5---------|
D|--5-----------3----------7----------7----------7-----------5---------|

guitar 1: 02:58 listen cd to hear how many times to play each note
E|---------------------------------------------------------------------|
B|--5-/-17-----------------15-----------------13-----------------------|
G|---------------------------------------------------------------------|
D|---------------------------------------------------------------------|
A|---------------------------------------------------------------------|
D|---------------------------------------------------------------------|

guitar 2: 02:59
E|---------------------------------------------------------------------|
B|---------------------------------------------------------------------|
G|---------------------------------------------------------------------|
D|------7(x32)-------------5(x16)---------------------------------3----|
A|------7------------------5------------------3--7-3----0-3-5--3-------|
D|------7------------------5------------------3------0-----------------|

guitar 1: listen cd to hear how many times to play each note
E|---------------------------------------------------------------------|
B|--12-----------------10-----------------8----------------8-/10-------|
G|---------------------------------------------------------------------|
D|---------------------------------------------------------------------|
A|---------------------------------------------------------------------|
D|---------------------------------------------------------------------|

guitar 2: Continued
E|---------------------------------------------------------------------|
B|---------------------------------------------------------------------|
G|---------------------------------------------------------------------|
D|--7(x32)-------------5(x16)---------------------------------3--------|
A|--7------------------5------------------3--7-3----0-3-5--3-----------|
D|--7------------------5------------------3------0---------------------|

guitar 2 contiued:
E|---------------------------------------------------------------------|
B|---------------------------------------------------------------------|
G|---------------------------------------------------------------------|
D|--7------------------------------------------------------------------|
A|--7------------------------------------------------------------------|
D|--7------------------------------------------------------------------|

guitar 1: 03:33
E|---------------------------------------------------------------------|
B|---------------------------------------------------------------------|
G|---------------------------------------------------------------------|
D|-------------------0-------------------0-----------------------------|
A|-------------0--------0-------------0-----0--------------------------|
D|--0----3-/7-----7--------0----3-/7-----------0--3--3--3--------------|x1

guitar 1 cont.
E|---------------------------------------------------------------------|
B|---------------------------------------------------------------------|
G|---------------------------------------------------------------------|
D|-------------0--------0-------------------0--------------------------|
A|----------------0--------0-------------0-----0-----------------------|
D|--0----3-/7--------7--------0----3-/7-----------0--3--3--3-----------|x3

guitar 1/keyboard: 03:49
E|---------------------------------------------------------------------|
B|--10(x16)---10(x16)---10(x32)---10(x16)---10(x32)---10(x16)----------|
G|--14--------12--------9---------14--------12--------9----------------|
D|---------------------------------------------------------------------|
A|------------------------------------------------------------x-x-x-x--|
D|------------------------------------------------------------x-x-x-x--|

guitar 2: 03:49
E|---------------------------------------------------------------------|
B|---------------------------------------------------------------------|
G|---------------------------------------------------------------------|
D|---------------------------------------------------------------------|
A|--7--7--7--7-\-3--3-/-7--7--7--7--7--7-\-3--3--3--3------------------|
D|--7--7--7--7-\-3--3-/-7--7--7--7--7--7-\-3--3--3--3------------------|x7

guitar 2: 04:14
E|---------------------------------------------------------------------|
B|---------------------------------------------------------------------|
G|---------------------------------------------------------------------|
D|---------------------------------------------------------------------|
A|--7--7--7--7-\-3--3-/-7--7--7--7--7--7-\-3--3--3--3------------------|
D|--7--7--7--7-\-3--3-/-7--7--7--7--7--7-\-3--3--3--3------------------|
                                           pmpmpmpmpm

guitar 2: 04:23
E|---------------------------------------------------------------------|
B|---------------------------------------------------------------------|
G|---------------------------------------------------------------------|
D|--7(x16)--------9(x16)--------5(x16)----------------------------3----|
A|--7-------------7-------------5-------------3--7-3----0-3-5--3-------|
D|--7-------------7-------------5-------------3------0-----------------|x2

guitar 2: 04:56
E|---------------------------------------------------------------------|
B|---------------------------------------------------------------------|
G|---------------------------------------------------------------------|
D|---------------------------------------------------------------------|
A|--3-/-7--7--7--7-\-3--3-/-7--7--7--7--7--7-\-3--3--3--3--------------|
D|--3-/-7--7--7--7-\-3--3-/-7--7--7--7--7--7-\-3--3--3--3--------------|

E|---------------------------------------------------------------------|
B|---------------------------------------------------------------------|
G|---------------------------------------------------------------------|
D|---------------------------------------------------------------------|
A|--7--7--7--7-\-3--3-/-7--7--7--7--7--7-\-3--3--3--3------------------|
D|--7--7--7--7-\-3--3-/-7--7--7--7--7--7-\-3--3--3--3------------------|x7

guitar 1: plays when guitar 2 starts 5th time 05:13 listen to cd
E|---------------------------------------------------------------------|
B|--18------------17------------13------------15-----------------------|
G|---------------------------------------------------------------------|
D|---------------------------------------------------------------------|
A|---------------------------------------------------------------------|
D|---------------------------------------------------------------------|

guitar 1: 05:29
E|---------------------------------------------------------------------|
B|--18-----------------------------------------------------------------|
G|---------------------------------------------------------------------|
D|---------------------------------------------------------------------|
A|---------------------------------------------------------------------|
D|---------------------------------------------------------------------|

guitar 2: 05:29
E|---------------------------------------------------------------------|
B|---------------------------------------------------------------------|
G|---------------------------------------------------------------------|
D|--0------------------------------------------------------------------|
A|--0------------------------------------------------------------------|
D|--0------------------------------------------------------------------|

outro(keyboard): 05:29
E|---------------------------------------------------------------------|
B|---------------------------------------------------------------------|
G|---------------------------------------------------------------------|
D|---------------------------------------------------------------------|
A|--5-----8-----7---------5-----8-----7----------------5-----3------12-|
D|-----------------------------------------------3---------------------|x2

Finished!

            
            
Suggest correction
Creating personal tab
Creating personal tab
You can edit any tab online and save it as your Personal.

You can edit, replace or remove any tab part or add personal notes – all changes will be seen only by you.

Personal tabs can be accessed anytime from any device, even offline.
Learn more »
comments
print report bad tab
23 comments total. Showing first comments.
0 reply
841stopstoday 10 Jul 15, 2006 08:58 PM

tabs great sound just like the song

0 reply
thrice07 101 Jul 24, 2006 04:57 PM

great tab, theres some wrong parts but the only one i can correct is this..
at 3:33 it should be this
guitar 1: 03:33
guitar 1: 03:33
E)----------------------------------|
B)----------------------------------|
G)----------------------------------|
D)----------0----------0------------|
A)--------0---0------0---0----------|
D)-----3h7-----7-3h7------7-3-3-3---|x4

0 reply
thrice07 101 Jul 24, 2006 04:58 PM

wait heres a correction..
E)----------------------------------|
B)----------------------------------|
G)----------------------------------|
D)----------0----------0------------|
A)--------0---0------0---0----------|
D)-----3h7-----0-3h7------0-3-3-3---|x4

guest
You may want to rate the tab now too:
select rating
Wanna post a correction for this tab? Suggest correction