Oops, an error
Loading. Please wait.

Desperate Times Desperate Measures Tab

version 1
version 1

Whole song

Interactive

5,415 views 3 this week
no commentswrite comment
1 2 3 4 5
accurate
x 2
add to favorites
launch autoscroll
font size
0
reset
how to read this tab
guitar tuner
Tab Pro tools
  • play this tab
  • loop segment
  • change instrument
  • show fretboard
  • metronome
Autoscroll
slow
fast
+/-
esc
set tempo
stop
Contributor
Difficulty
Tuning
intermediate
D A D G B E
-------------------------------------------------------------------------------
                Desperate Times, Desperate Measures - Underoath
-------------------------------------------------------------------------------
Tabbed by: brandon1125

Tuning:Dropped D

Intro 
Guitar 1
e|---------------------------------------------------------------------|
B|---------------------------------------------------------------------|
G|---------------------------------------------------------------------|
D|--/7-----/7-----------/7------/7-------00000-000000------------------|
A|---------------------------------------00000-000000------------------|
D|-----8h0----8h0-3h0-------8h0----8h0---00000-000000------------------|

Both Guitars
e|---------------------------------------------------------------|
B|---------------------------------------------------------------|
G|---------------------------------------------------------------| x2
D|--/7-----/7-----------/7------/7-------------------------------|
A|---------------------------------------------------------------|
D|-----8h0----8h0-3h0-------8h0----8h0--5h0-3--------------------|

Then

Guitar 1
e|---------------------------------------------------------------|
B|---------------------------------------------------------------|
G|---------------------------------------------------------------| 
D|--/7-----/7-----------/7------/7-------------------------------|
A|---------------------------------------------------------------|
D|-----8h0----8h0-3-------8h0----8h0--5555-(3333 on second time)-|

Guitar 2 
e|---------------------------------------------------------------|
B|---------------------------------------------------------------|
G|--/7-----/7-----7--10----/7-----/7-----------------------------|
D|---------------------------------------------------------------|
A|-----8h0----8h0----(8)------8h0----8h0--3333--------------------|
D|--------------(on second time)---------------------------------|

Prechorus

Guitar 1 tremolo picking
e|---------------------------------------------|
B|--10--8--17--15--10--8--17--18---------------|
G|---------------------------------------------|
D|---------------------------------------------|
A|---------------------------------------------|
D|---------------------------------------------|

Guitar 2 chord progression_1
e|--------------------|
B|--------------------|
G|--------------------|
D|-0--10--3--5--1-----|
A|-0--10--3--5--1-----|
D|-0--10--3--5--1-----|

Chorus
Guitar 1 Dont quite no yet...
e|---------------------------------------------------------------|
B|---------------------------------------------------------------|
G|---------------------------------------------------------------|
D|---------------------------------------------------------------|
A|---------------------------------------------------------------|
D|---------------------------------------------------------------|

Guitar 2 chord progression_2
e|----------------|
B|----------------|
G|----------------|
D|-0--3--5--1-----|
A|-0--3--5--1-----|
D|-0--3--5--1-----|

Feedback...
Back to intro Riffs...

Break down
Both Guitars
e|--------------------------------------|
B|-----------------------------6--------|
G|-----------------------------9--------|
D|-0-0--0-0--0-0------0-0--0-0----------|
A|-0-0--0-0--0-0--x3--0-0--0-0----------|
D|-0-0--0-0--0-0------0-0--0-0----------|

e|-------------------------------|                  
B|-------------------------------| 
G|-------------------------------| 
D|---0--8---0--8---0--8---0--8---|
A|---0--8---0--8---0--8---0--8---|
D|---0--8---0--8---0--8---0--8---|

Pre Chrous (second time) after bass fill

Chorus

Ending Riff (over chord progression_1)
Guitar 1
e|--------------------------------|
B|--------------------------------| 
G|--/7-7--/7-7--/7-7--/7-7--/7-7--| 
D|--------------------------------|
A|--/5-5--/5-5--/5-5--/5-5--/5-5--|
D|--------------------------------|
comments
We did not receive enough feedback on this tab! Please rate:
print report bad tab
1 2 3 4 5
I want to post or [tab]
guest
You may want to rate the tab now too:
select rating
Please do not post tabs as comments. Select "correction" instead!