Oops, an error
Loading. Please wait.

Desperate Times Desperate Measures Tab

version 3
version 3

Whole song

Interactive

4,053 views 1 this week
no commentswrite comment
1 2 3 4 5
accurate
x 4
add to favorites
launch autoscroll
font size
0
reset
how to read this tab
guitar tuner
Tab Pro tools
  • play this tab
  • loop segment
  • change instrument
  • show fretboard
  • metronome
Autoscroll
slow
fast
+/-
esc
set tempo
stop
Contributor
Underoath
Desperate Times, Desperate Measures.
Tuning: Drop D

  This new song is amazing as always from Underoath! Im using the song from
myspace to reference so I cant slow it down to hear a 100% Any corrections
welcome! This is just to give an idea

  Intro/Verse X6 G1                :10
e|---------------------------------------------------------------------------|
B|---------------------------------------------------------------------------|
G|---------------------------------------------------------------------------|
D|-7-------7--------7-------7-------xxxxx-xxxxx------------------------------|
A|------5----------------5----------xxxxx-xxxxx-repeat-----------------------|
E|---8p0---8p0p8h5----8p0------8h5--xxxxx-xxxxx------------------------------|

 G2 :10
e|---------------------------------------------------------------------------|
B|---------------------------------------------------------------------------|
G|---------------------------------------------------------------------------|
D|-00000-00000---------------------------------------------------------------|
A|-00000-00000---------------------------------------------------------------|
E|-00000-00000---------------------------------------------------------------|
   ..... .....

It changes up to
e|---------------------------------------------------------------------------|
B|---------------------------------------------------------------------------|
G|-7-------7--------7--------------------------------------------------------|
D|---------------------------------------------------------------------------|
A|-------5-------------------------------------------------------------------|
E|---8p0----8p0p885----8p0---------------------------------------------------|

 Prechorus downstroke each note according to song x2 {You can hear its single notes but 
you want to play it in chords you can.}
e|---------------------------------------------------------------------------|
B|---------------------------------------------------------------------------|
G|---------------------------------------------------------------------------|
D|---------------------------------------------------------------------------|
A|---------------------------------------------------------------------------|
E|-0x16--10x8--3-x8--5x16--8x16----------------------------------------------|


  Chorus: I think These are the chords James plays, but I cant hear what
Tim plays. 2nd time palm mute the 8's.
e|---------------------------------------------------------------------------|
B|---------------------------------------------------------------------------|
G|---------------------------------------------------------------------------|
D|-0-10-5-8------------------------------------------------------------------|
A|-0-10-5-8------------------------------------------------------------------|
E|-0-10-5-8------------------------------------------------------------------|

 Repeat intro

 I hear them talking... youll be able to hear when to play what.
e|---------------------------------------------------------------------------|
B|----------6----------------------------------------------------------------|
G|----------9-----------10---9---9-------------------------------------------|
D|00-00-00------------0-x--0-x-0-x-------------------------------------------|
A|00-00-00------------0-8--0-7-0-7-------------------------------------------|
E|00-00-00------------0----0---0---------------------------------------------|

  Repeat Prechorus and chorus

  I cant hear the outro clear enough for right now.
e|---------------------------------------------------------------------------|
B|---------------------------------------------------------------------------|
G|---------------------------------------------------------------------------|
D|---------------------------------------------------------------------------|
A|---------------------------------------------------------------------------|
E|---------------------------------------------------------------------------|

Please Comment With Corrections!

| /  slide up
| \  slide down
| h  hammer-on
| p  pull-off
| ~  vibrato
| +  harmonic
| x  Mute note
=====================================================
comments
print report bad tab
I want to post or [tab]
guest
You may want to rate the tab now too:
select rating
Please do not post tabs as comments. Select "correction" instead!