Oops, an error
Loading. Please wait.

Desperate Times Desperate Measures bass

version 4
version 4

Whole song

Interactive

407 views 3 this week
no commentswrite comment
1 2 3 4 5
3 more votes to show rating
add to favorites
×
Save as Personal and add changes to this tab that will be seen only by you. Learn more ›
×
You can save this tab as Personal to edit and correct it or add notes. All changes will be seen only by you. Learn more »
launch autoscroll
font size
0
reset
guitar tuner
backing track
0:00
0:00
edit
Autoscroll
slow
fast
+/-
esc
set tempo
stop
Band- Underoath
Song- Desperate Times Desperate Measures
Bassist- Grant Brandell
Tabbed By- Tyler
Tunning- Drop D DADG


Intro (0.11) x2
G|------------------|
D|7-07----7-07------|
A|------------------|
D|-8--8030-8--8032--|

Intro (0.22) x1
G|------------------|
D|7-07----7-07------|
A|------------------|
D|-8--8030-8--333---|

Intro (0.27) x1
G|----------------|
D|7-07----7-07----|
A|------------333-|
D|-8--8030-8------|

Verse (0.32) x1
G|--------------------|
D|--------------------|
A|--------------------|
D|000000000000000040--|


Verse (0.35)
G|--------|
D|--------|
A|33333333|
D|--------|


Verse (0.36)
G|--------|
D|--------|
A|--------|
D|33333333|


Verse (0.38)
G|----------------|
D|----------------|
A|----------------|
D|5555555555555555|


Verse (0.40)
G|----------------|
D|----------------|
A|----------------|
D|1111111111111111|


Verse (0.43) x1 (same thing just repeated)
G|----------------|
D|----------------|
A|----------------|
D|0000000000000000|


Verse (0.45)
G|--------|
D|--------|
A|33333333|
D|--------|


Verse (0.47) x1 (once again this whole section is just repeated)
G|--------|
D|--------|
A|--------|
D|33333333|


Verse (0.49) x1 (same)
G|-----------------|
D|-----------------|
A|-----------------|
D|5555555555555555-|


Verse (0.51) x1 (same)
G|-----------------|
D|-----------------|
A|-----------------|
D|1111111111111111-|


Breakdown (0.54) x1 (don't know how many zeros are actually in it there is many though)
G|-------------------------|
D|-------------------------|
A|-------------------------|
D|0000000000000000000000000|
(pause at 1.01, and them resume the zero's at 1.04 till 1.12 there is a break)

Intro
(1.18) x1
G|--------------------------|
D|--------------------------|
A|7-07----7-07-----7-07-----|
D|-8--8030-8--8032--8--8030-|

Bridge(1.26)
G|---------|
D|---------|
A|---------|
D|00-0-0000|
(stop at 1.41 its a break till 1.51)

Verse (1.51) (same)
G|----------------|
D|----------------|
A|----------------|
D|0000000000000000|


Verse (1.54) x1 (same)
G|--------|
D|--------|
A|33333333|
D|--------|

Verse (1.55) x1 (same)
G|--------|
D|--------|
A|--------|
D|33333333|

Verse (1.57) x1 (same as before)
G|----------------|
D|----------------|
A|----------------|
D|5555555555555555|

Verse (1.59) x1 (same as before)
G|----------------|
D|----------------|
A|----------------|
D|1111111111111111|

(Repeat all the verse parts start at 1.51 play in order and end at 2.31)


Ending (2.34) x7
G|-------------|
D|-------------|
A|----5-----5--|
D|00-0-00-00-0-|


Ending (2.53)
G|---------------------|
D|---------------------|
A|---------------------|
D|000000000000000000000|


Ending (2.55) x3
G|-------------|
D|-------------|
A|----5-----5--|
D|00-0-00-00-0-|

Ending (3.03)
G|-------------------|
D|-------------------|
A|-------------------|
D|0000000000000000000|


Ending (3.17) x3
G|-------------|
D|-------------|
A|----5-----5--|
D|00-0-00-00-0-|


Or and alternative Ending would be to hit 0 at the beginning and hold the note and
hit it again every now and then, i just threw the jam with Aarons cool drum part to get more
with the song,

Sorry for the longness of the tab but i taught myself this song by ear and i thought i
make it as much detailed as possible for beginners.

            
            
Suggest correction
Creating personal tab
Creating personal tab
You can edit any tab online and save it as your Personal.

You can edit, replace or remove any tab part or add personal notes – all changes will be seen only by you.

Personal tabs can be accessed anytime from any device, even offline.
Learn more »
Give kudos to tab author, rate the tab!
1 2 3 4 5
comments
print report bad tab
guest
You may want to rate the tab now too:
select rating
Wanna post a correction for this tab? Suggest correction