Oops, an error
Loading. Please wait.

In Regards To Myself intro tab

version 2
version 2

Intro

Whole song

Interactive

7,313 views 3 this week
5 commentsread comments
1 2 3 4 5
2 more votes to show rating
add to favorites
×
Save as Personal and add changes to this tab that will be seen only by you. Learn more ›
×
You can save this tab as Personal to edit and correct it or add notes. All changes will be seen only by you. Learn more »
launch autoscroll
font size
0
reset
how to read this tab
guitar tuner
edit
Autoscroll
slow
fast
+/-
esc
set tempo
stop
Underøath: In Regards to Myself
Album: Define the Great Line
Tuning: DADGBE

Here is yet ANOTHER version for the intro.
If you have trouble hearing some parts, download this song to windows media player and 
the song in slow-mo. It helps alot.

/ = side up
\ = slide down
h = hammer on
p = pull off
x = mute
. = palm mute
~ = let it ring
v^ = double pick
<> = harmonic
p/ = pick slide
b() = bend + fret number you bend to, in parenthesis


Guitar 1 (0:05)
E|-----------------0--------------------------------------|
B|-----------------4--------------------------------------|
G|--------------------------------v^v^--------------v^v^--|
D|----------------------------7-7-7777--------------0000--|
A|----------------------------8-8-8888--------------0000--|
D|--00-3h5-0-8h10-----5/10p0------------3-0--3p0-2--0000--|
                                .       . .         ....

The palm muted 3-0 right here___________^^^ is very fast and you can barely hear it, but 
me, it's there.

E|--------------------------------------------------|
B|-----------------4--------------------------------|
G|-----------------7--------------v^v^--------------|
D|----------------------------7-7-7777--------------|
A|----------------------------8-8-8888--------------|
D|--00-3h5-0-8h10-----5/10p0------------3-0--3p0-2--|
                                .       . .

                         here___________^^^

Guitar 1 & 2 (0:13)
E|-----------------0--------------------------------------|
B|-----------------4--------------------------------------|
G|--------------------------------v^v^--------------v^v^--|
D|----------------------------7-7-7777--------------0000--|
A|----------------------------8-8-8888--------------0000--|
D|--00-3h5-0-8h10-----5/10p0------------3-0--3p0-2--0000--|
                                .       . .         ....

                         here___________^^^

E|--------------------------------------------------------|
B|-----------------4--------------------------------------|
G|-----------------7--------------v^v^--------------v^v^--|
D|----------------------------7-7-7777--------------0000--|
A|----------------------------8-8-8888--------------0000--|
D|--00-3h5-0-8h10-----5/10p0------------3-0--3p0-2--0000--|
                                .       . .         ....

                         here___________^^^

E|-----------------0--------------------------------------|
B|-----------------4--------------------------------------|
G|--------------------------------v^v^--------------v^v^--|
D|----------------------------7-7-7777--------------0000--|
A|----------------------------8-8-8888--------------0000--|
D|--00-3h5-0-8h10-----5/10p0------------3-0--3p0-2--0000--|
                                .       . .         ....

                          here__________^^^

E|--------------------------------------------------|
B|-----------------4--------------------------------|
G|-----------------7--------------v^v^--------------|
D|----------------------------7-7-7777--------------|
A|----------------------------8-8-8888--------------|
D|--00-3h5-0-8h10-----5/10p0------------3-0--3p0-2--|
                                .       . .

and......................here___________^^^

I KNOW this isn't 100% correct, but please rate and leave a comment if you see anything 
needs to be changed.

            
            
Suggest correction
Creating personal tab
Creating personal tab
You can edit any tab online and save it as your Personal.

You can edit, replace or remove any tab part or add personal notes – all changes will be seen only by you.

Personal tabs can be accessed anytime from any device, even offline.
Learn more »
Give kudos to tab author, rate the tab!
1 2 3 4 5
comments
print report bad tab
5 comments total. Showing first comments.
0 reply
guitarwannabe16 1,036 Nov 14, 2006 08:59 AM

good job. i think the only thing is that
7
8
should be
9
7
8
and i dont hear that little 3 0 palm mute thing, even with windows slow mo. (which is what i used to tab out this song lol)

0 reply
Emericask8r3506 155 Nov 14, 2006 11:32 AM

i made a tiny mistake
it should go like this...
Guitar 1 (0:05)
E|-----------------0------------------------------------|
B|-----------------4------------------------------------|
G|--------------------------------v^v^------------v^v^--|
D|----------------------------7-7-7777------------0000--|
A|----------------------------8-8-8888------------0000--|
D|--00-3h5-0-8h10-----5/10p0------------0--3p0-2--0000--|
(i would put the palm mutes on there, but somehow they mess up on comments)

0 reply
punkmanhunter 20 Jan 04, 2007 04:48 PM

seems to work good job homie

guest
You may want to rate the tab now too:
select rating
Wanna post a correction for this tab? Suggest correction