Oops, an error
Loading. Please wait.

In Regards To Myself tab

version 4
version 4

Whole song

Interactive

46,300 views 39 this week
28 commentsread comments
1 2 3 4 5
x 30
add to favorites
×
Save as Personal and add changes to this tab that will be seen only by you. Learn more ›
×
You can save this tab as Personal to edit and correct it or add notes. All changes will be seen only by you. Learn more »
launch autoscroll
font size
0
reset
how to read this tab
guitar tuner
edit
Autoscroll
slow
fast
+/-
esc
set tempo
stop
Author
Song:In Regards To Myself
Artist/band:Underoath
 
(0:04-0:31)
e|---------------0-------------------------------|
B|---------------4-------------------------------|
G|------------------------9-----999--------------|
D|------------------------7-----777--------------|
A|-0---------1/3----------8-----888---------xxxx-|
E|-0h2-3/5-0-------5/10-0-7-7-7-777---3p0-2-xxxx-|x6
pm                          . .

 (0:31-0:44)                           
e|----------------------------|------------------------------|
B|----------------------------|------------------------------|
G|---<2>-<2>----<2>-----------|---<2>-<2>-----<2>------------|
D|---<2>-<2>----<2>-----------|---<2>-<2>-----<2>------------|
A|-0-<2>-<2>-0--<2>-----------|-0-<2>-<2>-0---<2>------------|
E|-0-<2>-<2>-0--<2>--0--2b3r2-|-0-<2>-<2>-0---<2>---0--2-/8\-|x2
 pm                  .                              .

 (0:44-0:56)
e|-------------|-------|--------------------|
B|-------------|-------|--------------------|
G|-------------|-------|--------------------|
D|-0-----0-----|-------|-0-----0------------|
A|-0-0-0-0-0-0-|-------|-0-0-0-0-0-0--------|
E|-0-0-0-0-0-0-|-2b3r2-|-0-0-0-0-0-0--2-/8\-|x2
 pm  . .   . .             . .   . . 

 (0:56-0:59)
e|----------
B|----------
G|----------
D|-1-/-7--0-
A|-1-/-7--0-
E|-1-/-7--0-

 (0:59-1:23)                                                           1st end.  2nd end.       
e|-----------------------------------------------------|---------|---------|
B|*---------------------------------------------------*|---------|-----<9>-|
G|--3-3-3-3-3-3-3-3-3-9-9-9-9-9-9-9-9-9\5-5-5-5-5-5-5--|---------|-----<9>-|
D|--1-1-1-1-1-1-1-1-1-7-7-7-7-7-7-7-7-7\3-3-3-3-3-3-3--|-1--1--1-|-----<9>-|
A|*-1-1-1-1-1-1-1-1-1-7-7-7-7-7-7-7-7-7\3-3-3-3-3-3-3-*|-1--1--1-|-----<9>-|
E|--1-1-1-1-1-1-1-1-1-7-7-7-7-7-7-7-7-7\3-3-3-3-3-3-3--|-1--1--1-|-000-<9>-|x2
 pm                                                      .  .  . 

 (1:24-1:35)                                                          1st end.  2nd end 
e|----------------------------------------------|--------|-------|
B|*----------------------6-6-------------------*|-10-10\-|-------|
G|-----------------------9-9b9.5----------------|-x--x---|-------|
D|----------------------------------------------|-8--8\--|-------|
A|*--------8\----------0-----------3-2-XX-2-0--*|--------|-------|
E|--002-/777\-22-2/(8)-0---------003-2-XX-2-0---|--------|-12\\\-|x2
 pm ..   ..   ..                 ..
                                         
 (1:36-1:48)                                                                  1st end.  2nd end 
e|----------------------------------------------|--------|-------|
B|*----------------------6-6-------------------*|-10-10\-|-------|
G|-----------------------9-9b9.5----------------|-x--x---|-------|
D|----------------------------------------------|-8--8\--|-------|
A|*--------8\----------0-----------3-2-XX-2-0--*|--------|-------|
E|--002-/777\-22-2/(8)-0---------003-2-XX-2-0---|--------|-12\\\-|x2
 pm ..   ..   ..                 ..

 |Gtr II
e|-----------------|
B|-10--------------|
G|-x--(strum alot)-|
D|-8---------------|
A|-----------------|
E|-----------------|

 (1:48-1:58)
e|----------------------------------------|
B|-10-10-10-10-10-10-10-10-10-10-10-10-10-|
G|-x--x--x--x--x--x--x--x--x--x--x--x--x--|
D|-8--8--8--8--8--8--8--8--8--8--8--8--8--|
A|----------------------------------------|
E|----------------------------------------|x4

 (1:58-2:24)
e|----------------------------------------|
B|----------10-10-10-10-10-10-10-10-10-10-|
G|---10--10-x--x--x--x--x--x--x--x--x--x--|
D|---x---x--10-10-10-10-10-10-10-10-10-10-|
A|---8---8--8--8--8--8--8--8--8--8--8--8--|
E|-000-0-0--8--8--8--8--8--8--8--8--8--8--|x4
pm ..  .

 (2:26-2:35)
 Guitar I
e|----------------------------|
B|-6-6-6-6---6---6-6-6-6---6--|
G|-9-9-9-9---9---9-9-9-9---9--|
D|----------------------------|
A|---------0---0---------0----|
E|---------0---0---------0----|x3
 pm        .   .         .

 |Guitar II
e|-----------------------------------------|
B|-----------------------------------------|
G|-10-10-10-10----10----10-10-10-10----10--|
D|-x--x--x--x-----x-----x--x--x--x-----x---|
A|-8--8--8--8--0--8--0--8--8--8--8--0--8---|
E|-------------0-----0--------------0------|x3 aswell
 pm            .     .              .

 (2:35-2:36)
e|---------------|
B|---------------|
G|---------------|
D|---------------|
A|---------------|
E|-0-1///-0-7\\\-|
 pm.      .

 (2:37-2:41)
 Guitar I
e|-----------------|
B|-6---6-6-6-6-----|
G|-9---9-9-9-9-----|
D|-----------------|
A|---0----------0--|
E|---0----------0--|x3
 |pm .          .

 |Guitar II
e|-----------------------|
B|-----------------------|
G|-10----10-10-10-10-----|
D|-x-----x--x--x--x------|
A|-8--0--8--8--8--8--0---|
E|----0--------------0---|x3 aswell
 pm   .              .

 (2:41-2:42)
e|---------------|
B|---------------|
G|---------------|
D|---------------|
A|---------------|
E|-0-1///-0-7\\\-|
 pm.      .

 (2:43-2:53)
e|---------------------------------------|
B|---------------------------------------|
G|---------------------------------------|
D|-1-/-7--0-------(0)--1--7--0-------(0)-|
A|-1-/-7--0-------(0)--1--7--0-------(0)-|
E|-1-/-7--0-------(0)--1--7--0-------(0)-|x4

 (2:53-2:54)
e|-<3>-------------------------------|
B|-<3>-------------------------------|
G|-<3>-(push neck forward to detune)-|
D|-<3>-------------------------------|
A|-<3>-------------------------------|
E|-<3>-------------------------------|

 (2:54-3:05)
e|---------------------------------------|
B|---------------------------------------|
G|---------------------------------------|
D|-1-/-7--0-------(0)--1--7--0-------(0)-|
A|-1-/-7--0-------(0)--1--7--0-------(0)-|
E|-1-/-7--0-------(0)--1--7--0-------(0)-|x4

 last chord
 (3:05)
e|-----|
B|-----|
G|--0--|
D|--0--|
A|--0--|
E|--0--|

************************************

| x    Dead note
| /    Slide up
| h    Hammer-on
| p    Pull-off
| .    Staccato
| r    Release
| b    Bend
| \    Slide down
| *    Natural harmonic
| (n)  Ghost note 

************************************

            
            
Suggest correction
Creating personal tab
Creating personal tab
You can edit any tab online and save it as your Personal.

You can edit, replace or remove any tab part or add personal notes – all changes will be seen only by you.

Personal tabs can be accessed anytime from any device, even offline.
Learn more »
comments
print report bad tab
28 comments total. Showing first comments.
+1 reply
FelipeSevenfold 10 Feb 07, 2007 05:11 PM

Where the guitar 2 at (0:44-0:56) ?

+1 reply
rockonmetal83 283 Feb 08, 2007 12:22 PM

I agree I need help figuring that part out,

0 reply
Hangar_18 616 Feb 08, 2007 01:51 PM

its a little to incoherent to learn by ear, but i'll try to learn it and get it tabbed out

guest
You may want to rate the tab now too:
select rating
Wanna post a correction for this tab? Suggest correction