Oops, an error
Loading. Please wait.

In Regards To Myself tab

version 5
version 5

Whole song

Interactive

1,527 views 1 this week
1 commentread comment
1 2 3 4 5
x 3
add to favorites
×
Save as Personal and add changes to this tab that will be seen only by you. Learn more ›
×
You can save this tab as Personal to edit and correct it or add notes. All changes will be seen only by you. Learn more »
launch autoscroll
font size
0
reset
how to read this tab
guitar tuner
edit
Autoscroll
slow
fast
+/-
esc
set tempo
stop
#----------------------------------PLEASE NOTE---------------------------------#
#This file is the author's own work and represents their interpretation of the #
#song. You may only use this file for private study, scholarship, or research. #
#------------------------------------------------------------------------------#

IN REGARDS TO MYSELF
As recorded by Underoath
(From the 2006 Album DEFINE THE GREAT LINE)


Transcribed by Eric De La Torre

 Words and Music by Underoath
Arranged by Underoath
 

Gtr I (D A D G B E) - 'Lead Guitar'
Gtr II (D A D G B E) - 'Rhythm Guitar'
Gtr III (D A D G B E) - 'Add. Rhythm'


   Intro
    Q=170
   4/4
    Gtr I
    E E E E E E  E E   +E  E   E E E Q  S S   E E E E Q  S S S S
||-----------------0-|-(0)------------------|------------x-x-x-x--||
||o----------------4-|-(4)------------------|------------x-x-x-x-o||
||-------------------|-------------9----9-9-|-9----------x-x-x-x--||
||----2--------------|-------------7----7-7-|-7----------x-x-x-x--||
||o------------------|-------------8----8-8-|-8----------x-x-x-x-o||
||--0---3-5-0-8-10---|-----5-/10-0----------|-----3-0-2--x-x-x-x--||


    E E E E E E  E E   +E  E   E E E Q  S S   E E E E Q  S S S S  4x
||-----------------0-|-(0)------------------|------------x-x-x-x--||
||o----------------4-|-(4)------------------|------------x-x-x-x-o||
||-------------------|-------------9----9-9-|-9----------x-x-x-x--||
||----2--------------|-------------7----7-7-|-7----------x-x-x-x--||
||o------------------|-------------8----8-8-|-8----------x-x-x-x-o||
||--0---3-5-0-8-10---|-----5-/10-0----------|-----3-0-2--x-x-x-x--||
|
|   Gtr II
|   E E E E E E  E E   +E  E   E E E Q  S S   E E E E Q  S S S S  4x
||-----------------0-|-(0)------------------|------------x-x-x-x--||
||o----------------4-|-(4)------------------|------------x-x-x-x-o||
||-------------------|-------------9----9-9-|-9----------x-x-x-x--||
||----2--------------|-------------7----7-7-|-7----------x-x-x-x--||
||o------------------|-------------8----8-8-|-8----------x-x-x-x-o||
||--0---3-5-0-8-10---|-----5-/10-0----------|-----3-0-2--x-x-x-x--||


   Breakdown
    Q.   Q  E Q    +E  Q  E Q  +Q       Q.   Q  E Q    +E  Q  E Q    Q
||-------x--x----|-----x--x-----------|------x--x----|-----x--x------------||
||o------x--x----|-----x--x-----------|------x--x----|-----x--x-----------o||
||-------x--x----|-----x--x-----------|------x--x----|-----x--x------------||
||--0----x--x-0--|-(0)-x--x-----------|-0----x--x-0--|-(0)-x--x------------||
||o-0----x--x-0--|-(0)-x--x-----------|-0----x--x-0--|-(0)-x--x-----------o||
||--0----x--x-0--|-(0)-x--x-2--(2)b3r=|=0----x--x-0--|-(0)-x--x-2--/12\----||
|
|   Q.   Q  E Q    +E  Q  E Q  +Q       Q.   Q  E Q    +E  Q  E Q    Q
||-------x--x----|-----x--x-----------|------x--x----|-----x--x------------||
||o------x--x----|-----x--x-----------|------x--x----|-----x--x-----------o||
||-------x--x----|-----x--x-----------|------x--x----|-----x--x------------||
||--0----x--x-0--|-(0)-x--x-----------|-0----x--x-0--|-(0)-x--x------------||
||o-0----x--x-0--|-(0)-x--x-----------|-0----x--x-0--|-(0)-x--x-----------o||
||--0----x--x-0--|-(0)-x--x-2--(2)b3r=|=0----x--x-0--|-(0)-x--x-2--/12\----||


    Q.     Q   E Q     +E  Q   E Q    +Q
||---------x---x-----|-----x---x-------------|
||o--------x---x-----|-----x---x-------------|
||---------x---x-----|-----x---x-------------|
||--0------x---x-0---|-(0)-x---x-------------|
||o-0------x---x-0---|-(0)-x---x-------------|
||--0------x---x-0---|-(0)-x---x-2----(2)b3r=|
|
|   Q.     Q   E Q     +E  Q   E Q    +Q
||---------x---x-----|-----x---x-------------|
||o--------x---x-----|-----x---x-------------|
||---------x---x-----|-----x---x-------------|
||--0------x---x-0---|-(0)-x---x-------------|
||o-0------x---x-0---|-(0)-x---x-------------|
||--0------x---x-0---|-(0)-x---x-2----(2)b3r=|
|
|   Gtr III
|   E  E E E E E E E    E  E E E Q    +Q
||-----0---0-------0-|-----0-----------------|
||o--------6---------|-----6---0-------------|
||--2----------0-2---|-----------2b3r=(2)----|
||-------------------|-----------------------|
||o------------------|-----------------------|
||-------------------|-----------------------|


  Q.     Q   E Q     +E  Q   E Q    Q
|--------x---x-----|-----x---x------------||
|--------x---x-----|-----x---x-----------o||
|--------x---x-----|-----x---x------------||
|-0------x---x-0---|-(0)-x---x------------||
|-0------x---x-0---|-(0)-x---x-----------o||
|-0------x---x-0---|-(0)-x---x-2--/12\----||
|
| Q.     Q   E Q     +E  Q   E Q    Q
|--------x---x-----|-----x---x------------||
|--------x---x-----|-----x---x-----------o||
|--------x---x-----|-----x---x------------||
|-0------x---x-0---|-(0)-x---x------------||
|-0------x---x-0---|-(0)-x---x-----------o||
|-0------x---x-0---|-(0)-x---x-2--/12\----||
|
| E  E E E E E E E    E  E E E Q   +Q
|----0---0-------0-|-----0----------------||
|--------6---------|-----6---0-----------o||
|-2----------0-2---|-----------2---(2)----||
|------------------|----------------------||
|------------------|---------------------o||
|------------------|----------------------||


  Gtr I
  Q.   Q.   Q    +W
|--------------|------------|
|--------------|------------|
|--------------|------------|
|-1----7----0--|-(0)--------|
|-1----7----0--|-(0)--------|
|-1----7----0--|-(0)--------|
|
| Gtr II
| Q.   Q.   Q    +W
|--------------|------------|
|--------------|------------|
|--------------|------------|
|-1----7----0--|-(0)--------|
|-1----7----0--|-(0)--------|
|-1----7----0--|-(0)--------|


   Chorus
     E  E  E  E  E  E  E  E    E  E  E  E  E  E  E  E
||--------------------------|-------------------------|
||o-------------------------|-------------------------|
||--14-14-14-14-14-14-14-14-|-14-14-14-14-14-14-14-14-|
||--------------------------|-------------------------|
||o-13-13-13-13-13-13-13-13-|-13-13-13-13-13-13-13-13-|
||--------------------------|-------------------------|
|
|    E  E  E  E  E  E  E  E    E  E  E  E  E  E  E  E
||--------------------------|-------------------------|
||o--4--4--4--4--4--4--4--4-|--4--4--4--4--4--4--4--4-|
||---3--3--3--3--3--3--3--3-|--3--3--3--3--3--3--3--3-|
||---1--1--1--1--1--1--1--1-|--1--1--1--1--1--1--1--1-|
||o--1--1--1--1--1--1--1--1-|--1--1--1--1--1--1--1--1-|
||---1--1--1--1--1--1--1--1-|--1--1--1--1--1--1--1--1-|


   E  E  E  E  E  E  E  E    E  E  E  E  E  E  E  E
|-------------------------|-------------------------|
|-------------------------|-------------------------|
|-14-14-14-14-14-14-14-14-|-14-10-10-10-10-10-10-10-|
|-------------------------|-------------------------|
|-12-12-12-12-12-12-12-12-|-12--8--8--8--8--8--8--8-|
|-------------------------|-------------------------|
|
|  E  E  E  E  E  E  E  E    E  E  E  E  E  E  E  E
|-------------------------|-------------------------|
|-------------------------|-------------------------|
|-------------------------|-------------------------|
|--7--7--7--7--7--7--7--7-|--7--3--3--3--3--3--3--3-|
|--7--7--7--7--7--7--7--7-|--7--3--3--3--3--3--3--3-|
|--7--7--7--7--7--7--7--7-|--7--3--3--3--3--3--3--3-|


  E E E E E E E  E    +E   E  E  E  E  E  E  E
|------------------|---------------------------|
|------------------|---------------------------|
|---------------14-|-(14)-14-14-14-14-14-14-14-|
|---1---1---1------|---------------------------|
|---1---1---1---13-|-(13)-13-13-13-13-13-13-13-|
|---1---1---1------|---------------------------|
|
| E E E E E E E  E    +E   E  E  E  E  E  E  E
|------------------|---------------------------|
|----------------4-|--(4)--4--4--4--4--4--4--4-|
|----------------3-|--(3)--3--3--3--3--3--3--3-|
|---1---1---1----1-|--(1)--1--1--1--1--1--1--1-|
|---1---1---1----1-|--(1)--1--1--1--1--1--1--1-|
|---1---1---1----1-|--(1)--1--1--1--1--1--1--1-|


   E  E  E  E  E  E  E  E    E  E  E  E S S E  Q
|-------------------------|--------------------0----||
|-------------------------|--------------------0---o||
|-14-14-14-14-14-14-14-14-|-10-10-10-10--------0----||
|-------------------------|-------------x-x-x-------||
|-12-12-12-12-12-12-12-12-|--8--8--8--8-x-x-x------o||
|-------------------------|-------------x-x-x-------||
|
|  E  E  E  E  E  E  E  E    E  E  E  E S S E  Q
|-------------------------|-------------------<5>---||
|-------------------------|-------------------<5>--o||
|-------------------------|-------------------<5>---||
|--7--7--7--7--7--7--7--7-|--3--3--3--3-x-x-x-<5>---||
|--7--7--7--7--7--7--7--7-|--3--3--3--3-x-x-x-<5>--o||
|--7--7--7--7--7--7--7--7-|--3--3--3--3-x-x-x-<5>---||


 Breakdown II
  PM       PM
  E E    E S S Q.   E      E S S Q.   E Q       +E  S S Q  S S Q  E
|----------------------|----------------------|----------------------|
|----------------------|----------------6-----|-(6)------------------|
|--------------9-------|--------------9-9b10--|-(9)------------------|
|--------------7-------|----------------------|----------------------|
|----------x-x-8-------|-----x-x-0------------|------------x-x----0--|
|-0-3/-/14-x-x------3/-|-/14-x-x-0------------|-----3-3-2--x-x-2--0--|
|
| PM       PM
| E E    E S S Q.   E      E S S Q.   E Q       +E  S S Q  S S Q  E
|----------------------|----------------------|----------------------|
|----------------------|----------------6-----|-(6)------------------|
|--------------9-------|--------------9-9b10--|-(9)------------------|
|--------------7-------|----------------------|----------------------|
|----------x-x-8-------|-----x-x-0------------|------------x-x----0--|
|-0-3/-/14-x-x------3/-|-/14-x-x-0------------|-----3-3-2--x-x-2--0--|


                        PM       PM
  +H     +E   E  E  E   E E    E S S Q.   E
|---------------------|----------------------|
|---------------------|----------------------|
|------------14-14-14-|--------------9-------|
|---------------------|--------------7-------|
|-(0)----(0)-13-13-13-|----------x-x-8-------|
|-(0)----(0)----------|-0-3/-/14-x-x------3/-|
|
|                       PM       PM
| +H     +E   E  E  E   E E    E S S Q.   E
|---------------------|----------------------|
|---------------------|----------------------|
|------------14-14-14-|--------------9-------|
|---------------------|--------------7-------|
|-(0)----(0)-13-13-13-|----------x-x-8-------|
|-(0)----(0)----------|-0-3/-/14-x-x------3/-|


    E S S Q.   E Q       +E  S S Q  S S Q  E
|----------------------|---------------------|
|----------------6-----|-(6)-----------------|
|--------------9-9b10--|-(9)-----------------|
|----------------------|---------------------|
|-----x-x-0------------|------------x-x----0-|
|-/14-x-x-0------------|-----3-3-2--x-x-2--0-|
|
|   E S S Q.   E Q       +E  S S Q  S S Q  E
|----------------------|---------------------|
|----------------6-----|-(6)-----------------|
|--------------9-9b10--|-(9)-----------------|
|----------------------|---------------------|
|-----x-x-0------------|------------x-x----0-|
|-/14-x-x-0------------|-----3-3-2--x-x-2--0-|


                  PM        PM
  +H      H       E  E    E S S  Q.    E
|---------------|-------------------------|
|---------------|-------------------------|
|---------------|----------------9--------|
|---------------|----------------7--------|
|-(0)-----------|-----------x-x--8--------|
|-(0)----12\----|-0--3/-/14-x-x--------3/-|
|
|                 PM        PM
| +H      H       E  E    E S S  Q.    E
|---------------|-------------------------|
|---------------|-------------------------|
|---------------|----------------9--------|
|---------------|----------------7--------|
|-(0)-----------|-----------x-x--8--------|
|-(0)----12\----|-0--3/-/14-x-x--------3/-|
|
| Gtr III
|  W              E  E    E S S  Q.    E
|---------------|-----------x-x-----------|
|---------------|-----------x-x-----------|
|---------------|---15---14-x-x-14----15--|
|---------------|-x---------x-x-----------|
|---------------|-x-13---12-x-x-12----13--|
|---------------|-x---------x-x-----------|


    E S S  Q.     E  Q        +E   S  S  Q  S S Q     E
|--------------------------|----------------------------|
|--------------------6-----|--(6)-----------------------|
|-----------------9--9b10--|--(9)-----------------------|
|--------------------------|----------------------------|
|-----x-x--0---------------|----------------x-x-------0-|
|-/14-x-x--0---------------|-------3--3--2--x-x-2-----0-|
|
|   E S S  Q.     E  Q        +E   S  S  Q  S S Q     E
|--------------------------|----------------------------|
|--------------------6-----|--(6)-----------------------|
|-----------------9--9b10--|--(9)-----------------------|
|--------------------------|----------------------------|
|-----x-x--0---------------|----------------x-x-------0-|
|-/14-x-x--0---------------|-------3--3--2--x-x-2-----0-|
|
|                                           PM
|   E S S  Q.     E  Q        +E   S  S  Q  E   E  E  E
|-----x-x------------------|----------------------------|
|-----x-x------------------|----------------------------|
|--14-x-x-14----/15-14-----|-(14)-15-15-14------7s15-14-|
|-----x-x------------------|----------------------------|
|--12-x-x-12----/13-12-----|-(12)-13-13-12------5s13-12-|
|-----x-x------------------|----------------0-----------|


                          PM        PM
   +H      +E   E  E  E   E  E    E S S  Q.    E
|-----------------------|-------------------------|
|-----------------------|-------------------------|
|--------------14-14-14-|----------------9--------|
|-----------------------|----------------7--------|
|--(0)-----(0)-13-13-13-|-----------x-x--8--------|
|--(0)-----(0)----------|-0--3/-/14-x-x--------3/-|
|
|                         PM        PM
|  +H      +E   E  E  E   E  E    E S S  Q.    E
|-----------------------|-------------------------|
|-----------------------|-------------------------|
|--------------14-14-14-|----------------9--------|
|-----------------------|----------------7--------|
|--(0)-----(0)-13-13-13-|-----------x-x--8--------|
|--(0)-----(0)----------|-0--3/-/14-x-x--------3/-|
|
|  +H      +E   E  E  E   E  E    E S S  Q.    E
|-----------------------|-----------x-x-----------|
|-----------------------|-----------x-x-----------|
|-(14)----(14)-14-14-14-|---15---14-x-x-14----15--|
|-----------------------|-x---------x-x-----------|
|-(12)----(12)-13-13-13-|-x-13---12-x-x-12----13--|
|-----------------------|-x---------x-x-----------|


    E S S  Q.     E  Q        +E   S  S  Q  S S Q     E
|--------------------------|------------------------------|
|--------------------6-----|--(6)-------------------------|
|-----------------9--9b10--|--(9)-------------------------|
|--------------------------|------------------------------|
|-----x-x--0---------------|----------------x-x-------0---|
|-/14-x-x--0---------------|-------3--3--2--x-x-2-----0---|
|
|   E S S  Q.     E  Q        +E   S  S  Q  S S Q     E
|--------------------------|------------------------------|
|--------------------6-----|--(6)-------------------------|
|-----------------9--9b10--|--(9)-------------------------|
|--------------------------|------------------------------|
|-----x-x--0---------------|----------------x-x-------0---|
|-/14-x-x--0---------------|-------3--3--2--x-x-2-----0---|
|
|                                           PM
|   E S S  Q.     E  Q        +E   S  S  Q  E   E  E  E
|-----x-x------------------|------------------------------|
|-----x-x------------------|------------------------------|
|--14-x-x-14----/15-14-----|-(14)-15-15-14------7s15-14---|
|-----x-x------------------|------------------------------|
|--12-x-x-12----/13-12-----|-(12)-13-13-12------5s13-12---|
|-----x-x------------------|----------------0-------------|


                  Interlude
   +H     Q.   E    Q   H           Q
|----------------|-----------------------|
|----------------|-----------------------|
|----------------|-----------------------|
|----------------|--0--------------------|
|--(0)-----------|--0--------------------|
|--(0)----0s==12-|--0--------------------|
|
|  +H     Q.   E    Q   H           Q
|----------------|-----------------------|
|----------------|-----------------------|
|----------------|-----------------------|
|----------------|--0--------------------|
|--(0)-----------|--0--------------------|
|--(0)----0s==12-|--0--------------------|
|
|  +W               Q   E  E  E  E  E  E
|----------------|-----------------------|
|----------------|-----------------------|
|-(14)-----------|-14--14-14-14-14-14-14-|
|----------------|-----------------------|
|-(12)-----------|-13--13-13-13-13-13-13-|
|----------------|-----------------------|


   W                         W
|-------------------------|-------------------------|
|-------------------------|-------------------------|
|-------------------------|-------------------------|
|-------------------------|-------------------------|
|-------------------------|-------------------------|
|-------------------------|-------------------------|
|
|  W                         W
|-------------------------|-------------------------|
|-------------------------|-------------------------|
|-------------------------|-------------------------|
|-------------------------|-------------------------|
|-------------------------|-------------------------|
|-------------------------|-------------------------|
|
|  E  E  E  E  E  E  E  E    E  E  E  E  E  E  E  E
|-------------------------|-------------------------|
|-------------------------|-------------------------|
|-14-14-14-14-14-14-14-14-|-14-14-14-14-14-14-14-14-|
|-------------------------|-------------------------|
|-13-13-13-13-13-13-13-13-|-13-13-13-13-13-13-13-13-|
|-------------------------|-------------------------|


   W                         Q   H.
|-------------------------|------------------------|
|-------------------------|------------------------|
|-------------------------|------------------------|
|-------------------------|--0---------------------|
|-------------------------|--0---------------------|
|-------------------------|--0---------------------|
|
|  W                         Q   H.
|-------------------------|------------------------|
|-------------------------|------------------------|
|-------------------------|------------------------|
|-------------------------|--0---------------------|
|-------------------------|--0---------------------|
|-------------------------|--0---------------------|
|
|  E  E  E  E  E  E  E  E    Q   E   E  E  E  E  E
|-------------------------|------------------------|
|-------------------------|------------------------|
|-14-14-14-14-14-14-14-14-|-14--14--14-14-14-14-14-|
|-------------------------|------------------------|
|-13-13-13-13-13-13-13-13-|-12--13--13-13-13-13-13-|
|-------------------------|------------------------|


   W                         W
|-------------------------|-------------------------|
|-------------------------|-------------------------|
|-------------------------|-------------------------|
|-------------------------|-------------------------|
|-------------------------|-------------------------|
|-------------------------|-------------------------|
|
|  W                         W
|-------------------------|-------------------------|
|-------------------------|-------------------------|
|-------------------------|-------------------------|
|-------------------------|-------------------------|
|-------------------------|-------------------------|
|-------------------------|-------------------------|
|
|  E  E  E  E  E  E  E  E    E  E  E  E  E  E  E  E
|-------------------------|-------------------------|
|-------------------------|-------------------------|
|-14-14-14-14-14-14-14-14-|-14-14-14-14-14-14-14-14-|
|-------------------------|-------------------------|
|-13-13-13-13-13-13-13-13-|-13-13-13-13-13-13-13-13-|
|-------------------------|-------------------------|


   Bridge
    S S  Q  S S  H       E  E  E  E  E  E  E  E
||--------------------|-------------------------|
||o-------------------|-------------------------|
||------10------10----|-14-14-14-14-14-14-14-14-|
||--------------------|-------------------------|
||o-0-0--8--0-0--8----|-13-13-13-13-13-13-13-13-|
||--0-0--0--0-0--0----|-------------------------|
|
|   S S  Q  S S  H       E  E  E  E  E  E  E  E
||--------------------|-------------------------|
||o-------------------|-------------------------|
||--------------------|-------------------------|
||--------------------|--8--8--8--8--8--8--8--8-|
||o-0-0--0--0-0--0----|--8--8--8--8--8--8--8--8-|
||--0-0--0--0-0--0----|--8--8--8--8--8--8--8--8-|


   E  E  E  E  E  E  E  E    E  E  E  E  E  E  E  E
|-------------------------|--------------------------|
|-------------------------|--------------------------|
|-14-14-14-14-14-14-14-14-|-14-14-14-14-14-14-14-14--|
|-------------------------|--------------------------|
|-13-13-13-13-13-13-13-13-|-13-13-13-13-13-13-13-13--|
|-------------------------|--------------------------|
|
|  E  E  E  E  E  E  E  E    E  E  E  E  E  E  E  E
|-------------------------|--------------------------|
|-------------------------|--------------------------|
|-------------------------|--------------------------|
|--8--8--8--8--8--8--8--8-|--8--8--8--8--8--8--8--8--|
|--8--8--8--8--8--8--8--8-|--8--8--8--8--8--8--8--8--|
|--8--8--8--8--8--8--8--8-|--8--8--8--8--8--8--8--8--|


  S S  Q  S S  H       E  E  E  E  E  E  E  E
|-------------------|-------------------------|
|-------------------|-------------------------|
|-----10------10----|-14-14-14-14-14-14-14-14-|
|-------------------|-------------------------|
|-0-0--8--0-0--8----|-13-13-13-13-13-13-13-13-|
|-0-0--0--0-0--0----|-------------------------|
|
| S S  Q  S S  H       E  E  E  E  E  E  E  E
|-------------------|-------------------------|
|-------------------|-------------------------|
|-------------------|-------------------------|
|-------------------|--8--8--8--8--8--8--8--8-|
|-0-0--0--0-0--0----|--8--8--8--8--8--8--8--8-|
|-0-0--0--0-0--0----|--8--8--8--8--8--8--8--8-|


   E  E  E  E  E  E  E  E    E  E  E  E  E  E  E  E
|-------------------------|----------------------------||
|-------------------------|---------------------------o||
|-14-14-14-14-14-14-14-14-|-14-14-14-14-14-14-14-14----||
|-------------------------|----------------------------||
|-13-13-13-13-13-13-13-13-|-12-12-12-10-10-10-10-10---o||
|-------------------------|----------------------------||
|
|  E  E  E  E  E  E  E  E    E  E  E  E  E  E  E  E
|-------------------------|----------------------------||
|-------------------------|---------------------------o||
|-------------------------|----------------------------||
|--8--8--8--8--8--8--8--8-|--8--8--8--8--8--8--8--8----||
|--8--8--8--8--8--8--8--8-|--8--8--8--8--8--8--8--8---o||
|--8--8--8--8--8--8--8--8-|--8--8--8--8--8--8--8--8----||


                     Outro
  S S  Q  S S  H      W
|-------------------|-------------------------|
|-------------------|-------------------------|
|-----10------10----|-------------------------|
|-------------------|-------------------------|
|-0-0--8--0-0--8----|-------------------------|
|-0-0--0--0-0--0----|-------------------------|
|
| S S  Q  S S  H      W
|-------------------|-------------------------|
|-------------------|-------------------------|
|-------------------|-------------------------|
|-------------------|-------------------------|
|-0-0--0--0-0--0----|-------------------------|
|-0-0--0--0-0--0----|-------------------------|
|
|                     Gtr III
| W                   S S  Q  S S  E  E  E  E
|-------------------|-x-x-----x-x-------------|
|-------------------|-x-x-----x-x-------------|
|-------------------|-x-x-10--x-x-10-10-10-10-|
|-------------------|-x-x-----x-x-------------|
|-------------------|-x-x--8--x-x--8--8--8--8-|
|-------------------|-x-x-----x-x-------------|


  H           E E E E     S S Q  S S E E E E   5x
|---------------------||--x-x----x-x-----------||
|-------------6-6-6-6-||o-x-x-6--x-x-6-6-6-6--o||
|-------------9-9-9-9-||--x-x-9--x-x-9-9-9-9---||
|-------------0-0-0-0-||--x-x-0--x-x-0-0-0-0---||
|-------------0-0-0-0-||o-x-x-0--x-x-0-0-0-0--o||
|-------------0-0-0-0-||--x-x-0--x-x-0-0-0-0---||
|
| H           E E E E     S S Q  S S E E E E   5x
|---------------------||--x-x----x-x-----------||
|---------------------||o-x-x----x-x----------o||
|-------------9-9-9-9-||--x-x-9--x-x-9-9-9-9---||
|---------------------||--x-x----x-x-----------||
|-------------8-8-8-8-||o-x-x-8--x-x-8-8-8-8--o||
|-------------0-0-0-0-||--x-x-0--x-x-0-0-0-0---||
|
| S S  Q  S S H           W                    5x
|-x-x-----x-x---------||-----------------------||
|-x-x-----x-x---------||o---------------------o||
|-x-x-10--x-x---------||-----------------------||
|-x-x-----x-x---------||-----------------------||
|-x-x--8--x-x---------||o---------------------o||
|-x-x-----x-x---------||-----------------------||


  PM     PM
  E Q  E E Q  E     S S Q  S S E E E E  3x
|---------------||--x-x----x-x----------||
|---------------||o-x-x-6--x-x-6-6-6-6-o||
|---------------||--x-x-9--x-x-9-9-9-9--||
|---------------||--x-x-0--x-x-0-0-0-0--||
|---------------||o-x-x-0--x-x-0-0-0-0-o||
|-0-0s=7-0-7s=0-||--x-x-0--x-x-0-0-0-0--||
|
| PM     PM
| E Q  E E Q  E     S S Q  S S E E E E  3x
|---------------||--x-x----x-x----------||
|---------------||o-x-x----x-x---------o||
|---------------||--x-x-9--x-x-9-9-9-9--||
|---------------||--x-x----x-x----------||
|---------------||o-x-x-8--x-x-8-8-8-8-o||
|-0-0s=7-0-7s=0-||--x-x-0--x-x-0-0-0-0--||


  PM     PM
  E Q  E E Q  E     Q.   Q.   Q    +W      3x
|---------------||---------------|---------||
|---------------||o--------------|--------o||
|---------------||---------------|---------||
|---------------||--1----7----0--|-(0)-----||
|---------------||o-1----7----0--|-(0)----o||
|-0-0s=7-0-7s=0-||--1----7----0--|-(0)-----||
|
| PM     PM
| E Q  E E Q  E     Q.   Q.   Q    +W      3x
|---------------||---------------|---------||
|---------------||o--------------|--------o||
|---------------||---------------|---------||
|---------------||--1----7----0--|-(0)-----||
|---------------||o-1----7----0--|-(0)----o||
|-0-0s=7-0-7s=0-||--1----7----0--|-(0)-----||


                 \1______/
  Q.   Q.   Q    H      +H         Q.   Q.   Q    +W      3x
|--------------|-0------(0)----||---------------|---------||
|--------------|-0------(0)----||o--------------|--------o||
|--------------|-0------(0)----||---------------|---------||
|-1----7----0--|-0------(0)----||--1----7----0--|-(0)-----||
|-1----7----0--|-0------(0)----||o-1----7----0--|-(0)----o||
|-1----7----0--|-0------(0)----||--1----7----0--|-(0)-----||
|
|                \1______/
| Q.   Q.   Q    H      +H         Q.   Q.   Q    +W      3x
|--------------|-0------(0)----||---------------|---------||
|--------------|-0------(0)----||o--------------|--------o||
|--------------|-0------(0)----||---------------|---------||
|-1----7----0--|-0------(0)----||--1----7----0--|-(0)-----||
|-1----7----0--|-0------(0)----||o-1----7----0--|-(0)----o||
|-1----7----0--|-0------(0)----||--1----7----0--|-(0)-----||


  Q.   Q.   Q    +W           +W           +W
|--------------|------------|------------|--------|
|--------------|------------|------------|--------|
|-----------0--|-(0)--------|-(0)--------|-(0)----|
|-1----7----0--|-(0)--------|-(0)--------|-(0)----|
|-1----7----0--|-(0)--------|-(0)--------|-(0)----|
|-1----7----0--|-(0)--------|-(0)--------|-(0)----|
|
| Q.   Q.   Q    +W           +W           +W
|--------------|------------|------------|--------|
|--------------|------------|------------|--------|
|--------------|------------|------------|--------|
|-1----7----0--|-(0)--------|-(0)--------|-(0)----|
|-1----7----0--|-(0)--------|-(0)--------|-(0)----|
|-1----7----0--|-(0)--------|-(0)--------|-(0)----|


  +W           +W           +W           +W
|------------|------------|------------|--------*|
|------------|------------|------------|--------*|
|-(0)--------|-(0)--------|-(0)--------|-(0)----*|
|-(0)--------|-(0)--------|-(0)--------|-(0)----*|
|-(0)--------|-(0)--------|-(0)--------|-(0)----*|
|-(0)--------|-(0)--------|-(0)--------|-(0)----*|
|
| +W           +W           +W           +W
|------------|------------|------------|--------*|
|------------|------------|------------|--------*|
|------------|------------|------------|--------*|
|-(0)--------|-(0)--------|-(0)--------|-(0)----*|
|-(0)--------|-(0)--------|-(0)--------|-(0)----*|
|-(0)--------|-(0)--------|-(0)--------|-(0)----*|




--------------------------------------------------------------------------------


Duration Legend
---------------
W - whole; H - half; Q - quarter; E - 8th; S - 16th; T - 32nd; X - 64th; a - acciaccatura
+ - note tied to previous; . - note dotted; .. - note double dotted
Uncapitalized letters represent notes that are staccato (1/2 duration)
Irregular groupings are notated above the duration line
Duration letters will always appear directly above the note/fret number it represents the
duration for.  Duration letters with no fret number below them represent rests.  Multi-
bar rests are notated in the form Wxn, where n is the number of bars to rest for.  Low
melody durations appear below the staff

Tablature Legend
----------------
 h   - hammer-on
 p   - pull-off
 b   - bend
 pb  - pre-bend
 r   - bend release (if no number after the r, then release immediately)
 /\  - slide into or out of (from/to "nowhere")
 s   - legato slide
 S   - shift slide
 - natural harmonic
[n]  - artificial harmonic
n(n) - tapped harmonic
 ~   - vibrato
 tr  - trill
 T   - tap
 TP  - trem. picking
 PM  - palm muting
\n/  - tremolo bar dip; n = amount to dip
 \n  - tremolo bar down
 n/  - tremolo bar up
/n\  - tremolo bar inverted dip
 =   - hold bend; also acts as connecting device for hammers/pulls
 <> - volume swell (louder/softer)
 x   - on rhythm slash represents muted slash
 o   - on rhythm slash represents single note slash

Misc Legend
-----------
 |  - bar
||  - double bar
||o - repeat start
o|| - repeat end
*|  - double bar (ending)
 :  - bar (freetime)
 $  - Segno
 &  - Coda
Tempo markers -  = BPM(8/16=s8/s16), where s8 = swing 8ths, s16 = swing 16ths



--------------------------------------------------------------------------------

** Generated using Power Tab Editor by Brad Larsen: The Official Power Tab Web Site

            
            
Suggest correction
Creating personal tab
Creating personal tab
You can edit any tab online and save it as your Personal.

You can edit, replace or remove any tab part or add personal notes – all changes will be seen only by you.

Personal tabs can be accessed anytime from any device, even offline.
Learn more »
Give kudos to tab author, rate the tab!
1 2 3 4 5
comments
print report bad tab
1 comment total.
0 reply
guitarwannabe16 1,036 Feb 26, 2007 10:48 AM

Hey this my tab! Thanx for formatting as a regular tab. Great job!

guest
Wanna post a correction for this tab? Suggest correction